Song name
# A B C D E F G H I J K L M N O P Q R S T U V W X Y Z

Cat Power - Names chords

Highlighted       Show chord diagrams
Names
CAT POWER


Chords:
=========
D#m     :  x68876
Bbm     :  x13321
Dbsus2  :  x46644
Ebsus2  :  x68866
F#m     :  244222


Tab for melody:
==============

e------------------------------------------------|
B--7--7---7-4-----------4-7--7---7-4---------4---|
G--------------6---6--6--------------6--6---6----|
D------------------------------------------------| x2
A------------------------------------------------|
E------------------------------------------------|


e---------------------------------------------------|
B---------------------------------------------------|
G--6-----------------------6------------------------|
D----8--6---6---6--8---8-----8--6---6---6--8---8----|  x2
A---------------------------------------------------|
E---------------------------------------------------|


=======



D#m          Bbm
His name was Perry
D#m                   Bbm
He had a learning difficulty
D#m               Bbm
His father was a very mean man
D#m                Bbm
His father burned his skin
Dbsus2                 Ebsus2
His father sent him to his death
Dbsus2   Ebsus2
He was 10 years old
Dbsus2   Ebsus2
He was 10 years old
Dbsus2         Ebsus2
He was 10 years old



D#m          Bbm
Her name was Naomi 
D#m                   Bbm
Beautiful round face, so ashamed
D#m           Bbm
Told me how to please a man
D#m               Bbm
After school in the back of the bus
    Dbsus2                Ebsus2
She was doing it every day
     Dbsus2       Ebsus2
She was 11 years old
      Dbsus2       Ebsus2
She was 11 years old
      Dbsus2       Ebsus2
She was 11 years old



D#m          Bbm
Her name was Cheryl
D#m              Bbm
Black hair like electric space
D#m                   Bbm
She would pretty paint my face
D#m                  Bbm
She was a very good friend
  Dbsus2                 Ebsus2
Her father would come to her in the night.
  Dbsus2        Ebsus2
---
     Dbsus2     Ebsus2
She was 12 years old
     Dbsus2     Ebsus2
She was 12 years old



D#m          Bbm
His name was Donovan
D#m            Bbm
He was a very good friend
D#m                    Bbm
The cards were stacked against him.
D#m      Bbm
He was selling cocaine
    Dbsus2      Ebsus2
The last time I saw him
      Dbsus2     Ebsus2
He was 13 years old
      Dbsus2     Ebsus2
He was 13 years old
      Dbsus2     Ebsus2
He was 13 years old



D#m          Bbm
His name was Charles
D#m              Bbm
He said he was in love with me
D#m         Bbm
We were both 14
D#m               Bbm
Then I had to move away
        Dbsus2      Ebsus2
Then he began to smoke crack
        Dbsus2      Ebsus2
Then he had to sell ass
       Dbsus2       Ebsus2
I dont know where he is
       Dbsus2         Ebsus2
I dont know where they are


D#m         Bbm
D#m         Bbm
Dbsus2      Ebsus2
F#m


===

Enjoy!
Tap to rate this tab
# A B C D E F G H I J K L M N O P Q R S T U V W X Y Z