Song name
# A B C D E F G H I J K L M N O P Q R S T U V W X Y Z

Cat Power - Cross Bones Style tab

This is my first tab, hope you like it.

Capo on 3rd fret.
All notes relative.

Intro
E---------------------------------------------------|
B---------------------------------------------------|
G-----0---0---0---0---0---0---0-5-----0---0---0-5---|
D---5---5---5---5---5---5---5-----5-5---5---5-----5-|
A--5-5-5-5---------5-5-5-5---------5-5-5-5----------|
E----------6-6-6-6---------6-6-6-6---------6-6-6-6--|

Main
The main part of the song is a combination of the below.
E-------------------|
B-------------------|
G-----0---0---0---0-|
D---5---5---5---5---|
A--5-5-5-5----------|
E----------6-6-6-6--|

E---------------------------|
B---------------------------|
G-----0---0---0---0---0---0-|
D---5---5---5---5---5---5---|
A--5-5-5-5-3-3-3-3----------|
E------------------3-3-3-3--|

E---------------------------|
B---------------------------|
G-----0---0---0---0---0---0-|
D---5---5---5---5---5---5---|
A--5-5-5-5-3-3-3------------|
E----------------6-3-3-3-3--|

E-------------------|
B-------------------|
G-----0---0---0---0-|
D---5---5---4---4---|
A--5-5-5-5-5-5-5-5--|
E-------------------|

E-----------|
B-----------|
G-----0---0-|
D---5---5---|
A--5-5-5-5--|
E-----------|

Outro
Just play the end part slower.
E-------------------------------|
B-------------------------------|
G---------0---0-----------------|
D-------5---5---4--4---4---5----|
A------5-5-5-5-5-5---5---5----5-|
E-----------------------------6-|

Tap to rate this tab
# A B C D E F G H I J K L M N O P Q R S T U V W X Y Z