Song name
# A B C D E F G H I J K L M N O P Q R S T U V W X Y Z

Cat Power - Wealthy Man tab

Cat Power-Wealthy Man
From "Myra Lee" (1996)

The song is simply two parts repeated till the end.

Main theme :
E  ------------------|
B -------------------|
G -------------------|
D -------------------|
A --2-2-0-3-0--------|
E -0-3-2-------------|

Then a variation she uses sometimes :
E  ------------------------------|
B ------------------0------------|
G -----------------0-------------|
D -----0---0---0--0--------------|
A ----2---2---0--3---------------|
E ---0---3---2-------------------|

She kind of improvises on this variation, going sometimes like this :
E  ------------------------------|
B -------------------------------|
G -----------------0-------------|
D -----0---0---0--0-0------------|
A ----2---2---0--3---------------|
E ---0---3---2-------------------|

Feel free to add some open strings
Tap to rate this tab
# A B C D E F G H I J K L M N O P Q R S T U V W X Y Z