Song name
# A B C D E F G H I J K L M N O P Q R S T U V W X Y Z

Cat Power - Cross Bone Style tab

this si a very easy song to play the other one on this site is incorect
i no this is right i hope its helps.



intro

E]--------------------------------0-----------------0-]
B]----------------------------------------------------]
G]--4-4-4-4-4-4-4-4-4-4-4-4-4-4-4--4--4-4-4-4-4-4-4---]
D]-4-4-4-4-0-0-0-0-4-4-4-4-0-0-0-0---4-4-4-4-0-0-0-0--]
A]----------------------------------------------------]
E]----------------------------------------------------]

just before chourse
part A
E]------------------]
B]------------------]
G]--4-4-4-4-4-4-4-4-]
D]-4-4-4-4-0-0-0-0--]x5
A]------------------]
E]------------------]
hater i have your dimonds and stil so still
Chourse

E]----------------------------------]
B]----------------------------------]
G]--4-4-4-4-4-4-4-4-4-4-4-4-4-4-4-4-]
D]-4-4-4-4-0-0-0-0-2-2-0-0----------]
A]-------------------------2-2-2-2--]
E]----------------------------------]
oh come child in cross bone style
of come child come and recuse me
'cause you have seen some unbeliveble thigs
 and then there is a solo of some kind and then part A 2 times

by Sydney graham
Tap to rate this tab
# A B C D E F G H I J K L M N O P Q R S T U V W X Y Z