Song name
# A B C D E F G H I J K L M N O P Q R S T U V W X Y Z

Cat Power - Back Of Your Head tab

This is a really good and catchy song by Cat Powerrr!!!

-------------------------------------------------------------------------------
			     BACK OF YOUR HEAD - Cat Power
                                      from her 1998 album MOON PIX
-------------------------------------------------------------------------------

Tabbed by: chris!
Email: siliconeyouth@gmail.com(send questions, comments, OR corrections!)

CAPO I
(capo on first fret)


Tuning: EADGBe (standard) all shapes realitive to capo

verse/main theme:
e|-------2------------------|
B|---------0-----3--0-------|
G|---------------------0----|
D|----2---------------------|
A|------------2-------------|
E|--------------------------|

                some variations on that (omitting the last note sometimes)

change:
e|----------------------------------------------------------------------------|
B|----------------(3)-----------------(0)-------------------------------------|
G|-------------------(0)-------------------(0)--------------------------------|
D|----------------------------------------------------------------------------|
A|-------------3--------------------------------------------------------------|
E|------------------------2--2--2---------------------------------------------|
                 "stands alone in most walks of life"
 
repeat that with some variations on open strings until you go back to the main theme
it basicly repeats those two parts alternating between them, just listen to the song
to get the timing and all of the variations. Even through Chan Marshall uses a pick
(thats what it sounds like to me) it sounds good fingerpicked too.

Tap to rate this tab
# A B C D E F G H I J K L M N O P Q R S T U V W X Y Z