Song name
# A B C D E F G H I J K L M N O P Q R S T U V W X Y Z

Cat Power - Good Clean Fun tab

INTRO

|---------------------------------|3times
|---------------------------------|
|---------------------------------|
|-----0-----0-----------0---------|
|---2-----2-----3-----3---3---1-2-|
|-0-----0-----0-----0-------0-----|

|---------------------------------|
|---------------------------------|
|---------------------------------|
|-----0-----0-----------0---------|
|---2-----2-----3-----3-----------|
|-0-----0-----0-----0-------------|

|---------------------------------|3times
|---------------------------------|
|---------------------------------|
|-----0-----0-----------0---------|
|---2-----2-----3-----3---3---1-2-|
|-0-----0-----0-----0-------0-----|


|---------------------------------|and back to the beginning
|---------------------------------|
|---------------------------------|
|-----0-----0---3-2-2-0-----------|
|---2-----2-----------------------|
|-0-----0-----0---------0---------|

this is nearly all the song. it just missed some chords in the middle.

Tap to rate this tab
# A B C D E F G H I J K L M N O P Q R S T U V W X Y Z