Guitaretab - guitar tabs
Song name
# A B C D E F G H I J K L M N O P Q R S T U V W X Y Z

Cat Stevens - I Love My Dog tab

Highlighted       Show chord diagrams
Cat Stevens - I Love My Dog

Tuning: eBGDAE

Tabbed By:Rundle

During this song, for the chords I like to use barre(9)chords, if you want use open
chords.

Enjoy =D

Riff 
-----
                                    
e||------------------------------------------------------------------|
B||------------------------------------------------------------------|
G||------------------------------------------------------------------|
D||----6---6h7--6h7p6----6---6h7------6---6h7--6h7p6----7---6--------|
A||--7---7-------------7---7--------7---7-----------------------7-7--|
E||--0-----------------0------------0--------------------------------|

The E chord will start strumming half-way through that (in the intro),
add the opens on the low E string where you think necessary.


E
I love my dog as much as I love you
E
But you may fade, my dog will always come through.

B                          A
All he asks from me is the food to give him strength
B                             A
All he ever needs is love and that he knows heíll get

E
So, I love my dog as much as I love you
E
But you may fade, my dog will always come through.
[ Tab from: http://www.guitaretab.com/c/cat-stevens/128743.html ]
B                        A
All the pay I need comes shining through his eyes
B                             A
I donít need no cold water to make me realize that

E
I love my dog as much as I love you
E
But you may fade, my dog will always come through.

D                       A
Na, na, na, na, na, na, nana...
D                       A
Na, na, na, na, na, na, nana...


E
I love my dog as much as I love you
E
But you may fade, my dog will always come through.


At this bit a trumpet, or whatever, plays the riff higher up the neck.

G
e||--------------------------------------------------------------------------|
B||--------------------------------------------------------------------------|
G||--------------------------------------------------------------------------|
D||-----9---9h10--9h10p9---9---9h10-------9---9h10--9h10p9----10---9---------|
A||--10--10-------------10---10--------10--10-------------------------10-10--|
E||--------------------------------------------------------------------------|

D                       A 
Na, na, na, na, na, na, nana...
D                       A
Na, na, na, na, na, na, nana...

E
I love my dog, baby, I love my dog. na, na, na...
E
I love my dog, baby, I love my dog. na, na, na...


END
Related for I Love My Dog tab