Song name
# A B C D E F G H I J K L M N O P Q R S T U V W X Y Z

Cat Stevens - Cats In The Cradle tab

e--0--7-7--9--7--5--5------------------------|
B--5--0-0--------------7--5--7-----3--5/7--5-|
G-------------------------------4------------|
D--------------------------------------------|
A--------------------------------------------|
E--------------------------------------------|

e--0----------------------------|
B-----3--0----------------------|
G-----------3--2--0-------------|
D--------------------2--0--4--2-|
A-------------------------------|
E-------------------------------|

Anyway, there it is!!! Feel free to email me at millietrinick_7@hotmail. I'de be glad to 
any variations!!
Tap to rate this tab
# A B C D E F G H I J K L M N O P Q R S T U V W X Y Z