Guitaretab - guitar tabs
Song name
# A B C D E F G H I J K L M N O P Q R S T U V W X Y Z

Cat Stevens - The Boy With A Moon And Star On His Head tab

Standard Tuning


|----0--h2--p0-------0--h2---------------|
|----------------3-----------3-----------|
|----0--h2--p0-------0--h2-------2-------|  (Riff x3)
|----------------0-----------0------0----|
|----------------------------------------|
|----------------------------------------|

A    Gardner's daughter stopped me on her way
|--2-------2--------3--------2-----------|
|----3---3---3---3----2----2---3---------|
|----------------------------------2-----|  
|------0-------0---------0-------0-------|
|----------------------------------------|
|----------------------------------------|
[ Tab from: http://www.guitaretab.com/c/cat-stevens/199323.html ]
On the day I was to wed.
|---------3--------0-------2------|
|-------0---0----2---2---3--------|
|---------------------------------|  
|----------------------0----------|
|--------------0------------------|
|-----3---------------------------|

(Riff x2)

                         "It is you, who I wish to share my body with", She said.
|----------------0---------0--------3-----3-----------0------ 2--|
|- 3----0------0----0----0----0----0--0--0--0-------2---2-----3--|
|2--2--------------------------------------------0- 2----2----2--|  
|-----0------------------------------------------2- 2------------|
|------------------------------------------------2- 0------------|
|-----------0---------0----------3-----3---------0-------------- |




Related for The Boy With A Moon And Star On His Head tab
×
Best way to learn
"The Boy With A Moon And Star On His Head"