Song name
# A B C D E F G H I J K L M N O P Q R S T U V W X Y Z

Cat Stevens - Lady Darbanville tab

Intro : 

E-|--7-7--5-3-5---|--5-5-7-5-3----|-----------------------------|
B-|---------------|---------------|-----------------------------|
G-|--7-7--5-4-5---|--5-5-7-5-4----|----------0------------------|
D-|---------------|---------------|------0h2---2-0-------0--2---|
A-|---------------|---------------|--0h2-----------2-0h2----2---|
E-|---------------|---------------|-----------------------------|





E-|---------------|---------------|----------------|----------------|
B-|---------------|---------------|----------------|----------------|
G-|---------------|---------------|----------------|----------------|
D-|---------------|---------------|----------------|----------------|
A-|--7-7--5--3-2-0|---3-3-2--0-2--|----------------|----------------|
E-|---------------|---------------|----------------|----------------|
   My-lady...	


                    Bm				      Em

E-|---------------|--2------------|----------------|--0-------------|
B-|------0-1-3-1--|--3------------|-----2-3-5-3----|--0-------------|
G-|--4------------|--4------------|----------------|--0-------------|
D-|---------------|--4------------|--4-------------|--2-------------|
A-|---------------|--2------------|----------------|--2-------------|
E-|---------------|--x------------|----------------|--0-------------|

     


     Em Em Em Em Em 				      D

E-|--0------------|----------x----|----------------|--2-------------|
B-|--0------------|----------x----|----------------|--3-------------|
G-|--0------------|----------x----|--0-0-----------|--2-------------|
D-|--2------------|----------2----|------4-2-------|--0-------------|
A-|--2------------|----------2----|----------------|--0-------------|
E-|--0------------|----------x----|----------------|--x-------------|
     My-lady...         ...ville.
                                 

		    D          Em		   Em	         D

E-|--2--2-3-5-3---|-2--------0-0--|----------------0-|-----------2--|
B-|---------------|-3----------0--|----------------0-|-----------3--|
G-|---------------|-2----------0--|----------------0-|-----------2--|
D-|---------------|-0----------2--|----------------2-|-----------0--|
A-|---------------|-0----------2--|------2-2-0-----2-|-----------0--|
E-|---------------|-x----------0--|------------3-2-0-|---3-3-2-0-x--|

		    Bm				   Em

E-|--2--2-3-5-3---|-2--------------|-------0-2-----0-|----------------|
B-|---------------|-3--------------|--3--3-----5---0-|----------------|
G-|---------------|-4--------------|---------------0-|----------------|
D-|---------------|-4--------------|---------------2-|----------------|
A-|---------------|-2--------------|---------------2-|----------------|
E-|---------------|-x--------------|---------------0-|----------------|
Tap to rate this tab
# A B C D E F G H I J K L M N O P Q R S T U V W X Y Z