Song name
# A B C D E F G H I J K L M N O P Q R S T U V W X Y Z

Cat Stevens - Moonshadow tab

I'm sure this is100% correct, Enjoy!





e|-5---------5----5------------3----2----3----------------2------------||
B|-3-------------------------------------0-------------------3---------||
G|-----2-----------------2------------------0--------0-----------------||
D|-0-----------------0------------------------------------0------------||
A|---------------------------------------------------------------------||
E|-----------------------------------------------3-----------2---------||



e|----------3---------------------------2--------0-----2---------------||
B|----------0-------------------------------------------------3--------||
G|-----0---------0--------0---------0---------2------------------------||
D|--------------------------------------0------------------------------||
A|--------------------2--------0---------------------------------------||
E|--3------------------------------------------------------------------||
Tap to rate this tab
 
# A B C D E F G H I J K L M N O P Q R S T U V W X Y Z