Cat Stevens - Sad Lisa tab

-------------------------------------------------------------------------------
			     SAD LISA - Cat Stevens
-------------------------------------------------------------------------------
Tabbed by: asd20227
Email: timothy8888 at gmail.com

Tuning: Standard
Capo: 7th

(Intro)
   Am      G          Am      G          Am      G          Am      G
e|-----0---0-----0--|-----0---0--------|-----0---0-----0--|-----0---0--------|
B|-------1----------|-------1----------|-------1----------|-------1----------|
G|-----2---2-0---2--|-----2---2-0------|-----2---2-0---2--|-----2---2-0------|
D|---2---------0----|---2---------0----|---2---------0----|---2---------0----|
A|-0----------------|-0----------------|-0----------------|-0----------------|
E|------------------|---------------3--|------------------|---------------3--|

   Am      G          Am      G          Am      G          Am      G
e|-----0---0-----0--|-----0---0-----3--|-5---0---0-----0--|-----0---0--------|
B|-------1----------|-------1-------1--|-------1----------|-------1----------|
G|-----2---2-0---2--|-----2---2---0----|-----2---2-0---2--|-----2---2-0------|
D|---2---------0----|---2-------0------|---2---------0----|---2---------0----|
A|-0----------------|-0----------------|-0----------------|-0----------------|
E|------------------|------------------|------------------|---------------3--|

(Verse)                                                                   She
   Am                 Am      G          F                  G       Am
e|---------0--------|------------------|------------------|------------------|
B|-------1---1---1--|-----1-------0----|------------------|-----0---------1--|
G|-----2-------2----|-----2-------0----|-----2------------|-----0-------2----|
D|---2--------------|---2---2---0---0--|-----3------------|---0-------2------|
A|-0----------------|-0----------------|---3-----0---3-0--|---------0--------|
E|------------------|---------3--------|-1----------------|-3-----3----------|

   hangs her head and cries on my shirt                 She must be hurt very ba-

   G     C                     C     G            Am      D
e|---------------0-------0--|------------------|---------------2----------|
B|-------------1---1-3-1----|-------------0-3--|-------1-----3---3---3----|
G|-----0-----0--------------|-----0-----0------|-----2-----2-------2---2--|
D|---0-----2----------------|---2-----0--------|---2-----0----------------|
A|-------3------------------|-3----------------|-0------------------------|
E|-3------------------------|-------3----------|--------------------------|

  -adly            Tell me what's making you sad, Li?

   Am      D          G       F                   G       Am
e|---------------2--|---------------------------|---------------0--|
B|-------1-----3----|-------0---------1---------|-------0-----1----|
G|-----2-----2------|-----0---------2---2---2---|-----0-----2------|
D|---2-----0--------|---0---------3-------3-----|---0--------------|
A|-0----------------|-----------3---------------|---------0--------|
E|------------------|-3-------1-----------------|-3----------------|

 Open the door, don't hide in the dark. You're lost in the dark, you can trust

   G     C                     C     G            Am      D
e|-------------0------------|-----0------------|---------------2----------|
B|-----------1---1---1---1--|---1---------0-3--|-------1-----3---3--------|
G|-----0---0-------0---0----|-0---------0------|-----2-----2-------2-0----|
D|---0----------------------|---------0--------|---2-----0-------------4--|
A|-------3------------------|------------------|-0------------------------|
E|-3------------------------|-------3----------|--------------------------|

       me          'Cause you know that's how it must be

   D                  Am      D       E
e|-------2----------|---------------2----------|
B|-----3------------|-------1-----3---------0--|
G|---2--------------|-----2-----2---------1----|
D|-0-------0--------|---2-----0---------2------|
A|------------------|-0------------------------|
E|------------------|-----------------0-0---0--|

                      Lisa Lisa, sad Lisa Lisa

   Am      G          Am      G          Am      G          Am      G
e|-----0---0-----0--|-----0---0--------|-----0---0-----0--|-----0---0--------|
B|-------1----------|-------1----------|-------1----------|-------1----------|
G|-----2---2-0---2--|-----2---2-0------|-----2---2-0---2--|-----2---2-0------|
D|---2---------0----|---2---------0----|---2---------0----|---2---------0----|
A|-0----------------|-0----------------|-0----------------|-0----------------|
E|------------------|---------------3--|------------------|---------------3--|

                                                                          Her
   Am                 Am  *triplets* G   F                  G       Am
e|---------0--------|-----0------------|------------------|---------------0--|
B|-------1---1---1--|----1-1-----030---|-----------1------|-------0-----1----|
G|-----2-------2----|---2-------0------|---------2-----2--|-----0-----2------|
D|---2--------------|--2-------0-------|-----3-------3----|---0--------------|
A|-0----------------|-0----------------|---3---3----------|---------0--------|
E|------------------|---------3--------|-1----------------|-3----------------|

   eyes like windows, trickle in rain                  Upon the pain getting deep-

   G     C                     C       G          Am      D
e|-------------0-------0----|------------------|---------------2----------|
B|---0-3-----1---1---1---1--|-----1-------0----|-------1-----3---3---3----|
G|---------0-------0--------|---0---0---0---0--|-----2-----2-------2---2--|
D|--------------------------|-2-------0--------|---2-----0----------------|
A|-------3------------------|------------------|-0------------------------|
E|-3------------------------|---------3--------|--------------------------|

  -per              Though my love wants to relieve her                 She               

   Am      D          G       F                   G       Am
e|-0----------------|--------------------------|---------------0--|
B|-------1-3---1-0--|-0---------------1--------|-------0-----1----|
G|-----2-----2------|---2-0-2-2-----2---2---2--|-----0-----2------|
D|---2-----0--------|-------------3-------3----|---0--------------|
A|-0----------------|-----------3--------------|---------0--------|
E|------------------|-3-------1----------------|-3----------------|

   walks alone from   wall to wall            Lost in her hall she can't hear

   G     C                     C       G          Am      D
e|-------------0------------|------------------|---------------2----------|
B|-----0-----1---1---1---1--|-----1---------0--|-1-----1-----3---3--------|
G|---0-----0-------0---0----|---0---0-----0----|-----2-----2-------2-0----|
D|--------------------------|-2---------0------|---2-----0-------------4--|
A|-------3------------------|------------------|-0------------------------|
E|-3------------------------|---------3--------|--------------------------|

       me            Though I know she likes to be near me

   D                  Am              E
e|-------2----------|---------------2----------|
B|-----3------------|-------1-----3---------0--|
G|---2--------------|-----2-----2---------1----|
D|-0-------0--------|---2-----0---------2------|
A|------------------|-0------------------------|
E|------------------|-----------------0-0---0--|

                      Lisa Lisa, sad Lisa Lisa

   Am      G          Am      G          Am      G          Am      G
e|-----0---0-----0--|-----0---0--------|-----0---0-----0--|-----0---0--------|
B|-------1----------|-------1----------|-------1----------|-------1----------|
G|-----2---2-0---2--|-----2---2-0------|-----2---2-0---2--|-----2---2-0------|
D|---2---------0----|---2---------0----|---2---------0----|---2---------0-2--|
A|-0----------------|-0----------------|-0----------------|-0----------------|
E|------------------|---------------3--|------------------|------------------|

(Solo)               *triplet*
e|-----------------|---------------------|-----------------|------------------|
B|-----0-1---0-----|--01-----0-----0h1p0-|---------------1-|-0---------0-1-3--|
G|-2---------------|-2-----------0-------|-2---------------|-----0-2----------|
D|---2-----2-------|-----------0---------|-----3-------3---|---0--------------|
A|-0---------------|-0-------------------|---3---3---3-----|---------0--------|
E|-----------------|---------3-----------|-1---------------|-3----------------|

e|-------0------------------|-0---------0-3----|--------------2h3p2---------|
B|---------------1-----1-3--|-------3-------1--|-------3-----3------3-------|
G|-----0-------0-----0------|-----0------------|-----2-----2----------2-----|
D|---0-------2--------------|---2--------------|---2-----0------------------|
A|---------3----------------|-3----------------|-0--------------------------|
E|-3------------------------|---------3--------|----------------------------|

e|------------------|--------------------------|------------------|
B|-1-0-1-3-----1----|-0---0-1---------------1--|-0---------0-1----|
G|-2-----------2----|-0-2----------------------|-0-2-0-2----------|
D|---------0--------|-------------3-------3----|------------------|
A|-0----------------|-----------3---3---3------|---------0--------|
E|------------------|-3-------1----------------|-3----------------|

e|-----0--------------------|-0---------0-3----|--------------2h3p2---------|
B|-3-------------------1-3--|-------3-------1--|-------3-----3------3-------|
G|-----0--------------------|-----0------------|-----2-----2----------2-----|
D|-0------------------------|---2--------------|---2-----0------------------|
A|-----3--------------------|-3----------------|-0--------------------------|
E|-3------------------------|---------3--------|----------------------------|

e|-----0------------|-----0------------|------------------|-----0------------|
B|---1---------3----|---0-----------1--|-1-------0--------|-------------3----|
G|-2-----0---2------|-1-----2-----2----|-----2-------0----|-2-------0--------|
D|---------4--------|-----------2------|---2---2---0---0--|---2-------0------|
A|-0----------------|---------0--------|-0----------------|-0----------------|
E|------------------|-0----------------|---------3--------|---------3--------|

e|-------------------------0--------|
B|-----1-------0-------1------------|
G|---2-------0-------2---2----------|
D|-2-------0-------2----------------|
A|----------------------------------|
E|----------------------------------|

(Verse)                          She
   Am                 Am      G          F                  G       Am
e|---------0--------|------------------|---------0--------|------------------|
B|-------1---1---1--|-----1-------0----|---1-1-3----------|-----0-------1----|
G|-----2-------2----|-----2-------0----|---2-2------------|-------0-------2--|
D|---2--------------|---2---2---0---0--|------------------|---0-------2------|
A|-0----------------|-0----------------|------------------|---------0--------|
E|------------------|---------3--------|-1----------------|-3----------------|

   sits in a corner  by the do -         or        There must be more I can tell

   G     C                    C       G          Am      D
e|-------------0------------|------------------|---------------------------|
B|-----0-----1---1---1---1--|-----1---------0--|-------1-----3-1-3---3-----|
G|---------0-------0---0----|---0---0-----0----|-----2-----2-------2---2---|
D|---0----------------------|-2---------0------|---2-----0-----------------|
A|-------3------------------|------------------|-0-------------------------|
E|-3------------------------|---------3--------|---------------------------|

         her         If she really wants me to help   her              I'll

   Am      D          G       F                  G       Am
e|------------------|--------------------------|---------------0--|
B|-------1-----3-1--|-0---------------1--------|-------0-----1----|
G|-----2-----2------|-----0---2-----2---2---2--|-----0-----2------|
D|---2-----0--------|---0---0-----3-------3----|---0--------------|
A|-0----------------|-----------3--------------|---------0--------|
E|------------------|-3-------1----------------|-3----------------|

   do what I can to   show her the way    And maybe some day I will free

   G     C                    C       G          Am      D
e|-------0-----0------------|-0-------3--------|-5-------------2----------|
B|-3---------1---1---1---1--|-----1-------0----|-----5-------3---3--------|
G|-----0---0-------0---0----|---0---0---0---0--|---5---5---2-------2-0----|
D|---0----------------------|------------------|---------0-------------4--|
A|-------3------------------|-3----------------|-0------------------------|
E|-3------------------------|---------3--------|--------------------------|

         her         Though I know no one can see     her

   D                  Am      D       E          Am      G
e|-------2----------|-0-------2-------4-----5--|-----0---0-----0--|
B|-----3------------|-------1-----3-------0----|-------1----------|
G|---2--------------|-----2-----2---2---1------|-----2---2-0---2--|
D|-0-------0--------|---2-----0----------------|---2---------0----|
A|------------------|-0------------------------|-0----------------|
E|------------------|-----------------0--------|------------------|

                      Lisa Lisa, sad Lisa Lisa

   Am      G          Am      G          Am      G           Am
e|-----0---0--------|-----0---0-----0--|-----0---0-----3--|--5---------------|
B|-------1----------|-------1----------|-------1-------1--|--5---------------|
G|-----2---2-0------|-----2---2-0---2--|-----2---2---0----|--5---------------|
D|---2---------0----|---2---------0----|---2-------0------|------------------|
A|-0----------------|-0----------------|-0----------------|--0---------------|
E|---------------3--|------------------|------------------|------------------|
Tap to rate this tab
 
# A B C D E F G H I J K L M N O P Q R S T U V W X Y Z