Song name
# A B C D E F G H I J K L M N O P Q R S T U V W X Y Z

Cat Stevens - Peace Train tab

----------------------------------------------------------------------------
		     PEACE TRAIN, EASY VERSION - CAT STEVENS
----------------------------------------------------------------------------
Tabbed by: Peetie

This is my first tab.

I Studied the way Cat/Yusuf presses the tabs and it looks like he does it like this:

1. Index
2. Middle Finger
3. Ring Finger
4. Pinky Finger

          F          C          G           Am
E |----|-|-|-|----|-|-4-|----|-|-4-|------|-|-|-|-------------------------|
B |----1-|-|-|----1-|-|-|----1-|-|-|------1-|-|-|-------------------------|
G |----|-2-|-|----|-|-|-|----|-|-|-|------|-3-|-|-------------------------|
D |----|-|-4-|----|-2-|-|----|-|-|-|------|-2-|-|-------------------------|
A |----|-|-3-|----|-|-3-|----|-2-|-|------|-|-|-|-------------------------|
E |----|-|-|-|----|-|-|-|----|-|-3-|------|-|-|-|-------------------------|

So I set up the tabs accordingly.  It may not be a precise "G" or "C" etc,
but this is the code I used in the tab to simplify. It sounds pretty good.

====START======START======START======START======START======START======START=

Intro
                    
E |-----------------|------------------|--1---3-----5----|5--/3-----/5----|
B |--1---3-------5--|-----5----3---1---|-----------------|----------------|
G |-----------------|------------------|--2---3-----5----|5--/3-----/5----|
D |--2---3-------5--|-----5----3---2---|-----------------|----------------|
A |-----------------|------------------|-----------------|----------------|
E |-----------------|------------------|-----------------|----------------|
 

E |----5---7---8----|---------10--8----|--5-------7---5--|--5---5---5-----|
B |-----------------|------------------|-----------------|----------------|
G |----5---7---9----|----------9--9----|--5-------7---5--|--5---5---5-----|
D |-----------------|------------------|-----------------|----------------|
A |-----------------|------------------|-----------------|----------------|
E |-----------------|------------------|-----------------|----------------|

================================================================================

Verse 1
 
     C         G     C              F     C              F
             
E |--3---------3-----3---3---3---|--0-----3--------------0---0--0--------|
B |--1---------1-----1---1---1---|--1-----1--------------1---1--1--------|
G |--0---------0-----0---0---0---|--2-----0--------------2---0--2--------|
D |--2---------0-----2---0---2---|--3-----2--------------3---3--3--------|
A |--3---------2-----3---3---3---|--3-----3--------------3---3--3--------|
E |--0---------3-----0---0---0---|--0-----0--------------0---0--0--------|
    Now I've been happy lately, thinking a-bout the good things to come,

     F   G      Am               F          G     F
E |--0---3------0---------0-0-|--0----------3-----0-------------|
B |--1---1------1---------3-1-|--1----------1-----1-------------|
G |--2---0------2---------2-2-|--2----------0-----2-------------|
D |--3---0------2---------2-2-|--3----------0-----3-------------|
A |--3---2------0---------0-0-|--3----------2-----3-------------|
E |--0---3------0---------0-0-|--0----------3-----0-------------|
    And I be-lieve it could be,    some-   thing good has begun

     C       G     C              F        C           F
E |--3-------3-----3---3---3---|--0--------3-----------0----0--0----|
B |--1-------1-----1---1---1---|--1--------1-----------1----1--1----|
G |--0-------0-----0---0---0---|--2--------0-----------2----0--2----|
D |--2-------0-----2---0---2---|--3--------2-----------3----3--3----|
A |--3-------2-----3---3---3---|--3--------3-----------3----3--3----|
E |--0-------3-----0---0---0---|--0--------0-----------0----0--0----|
   Oh, I've been smiling lately, dreaming a-bout the world as one,  

     F   G     Am                F       G      F
E |--0---3------0--------0-0--|--0-------3------0-------------|
B |--1---1------1--------3-1--|--1-------1------1-------------|
G |--2---0------2--------2-2--|--2-------0------2-------------|
D |--3---0------2--------2-2--|--3-------0------3-------------|
A |--3---2------0--------0-0--|--3-------2------3-------------|
E |--0---3------0--------0-0--|--0-------3------0-------------|
    And I be-lieve it could be,   some-day it's going to come

================================================================================

Verse 2

          C    G      C                F       C               F
E |-------3----3------3---3---3---|----0-------3---------------0---0--0--|
B |-------1----1------1---1---1---|----1-------1---------------1---1--1--|
G |-------0----0------0---0---0---|----2-------0---------------2---0--2--|
D |-------2----0------2---0---2---|----3-------2---------------3---3--3--|
A |-------3----2------3---3---3---|----3-------3---------------3---3--3--|
E |-------0----3------0---0---0---|----0-------0---------------0---0--0--|
   'Cause out on the edge of darkness,   there rides a peace train,

         F     G    Am                 F       G       F
E |------0-----3-----0---------0-0-|---0-------3-------0-------------|
B |------1-----1-----1---------3-1-|---1-------1-------1-------------|
G |------2-----0-----2---------2-2-|---2-------0-------2-------------|
D |------3-----0-----2---------2-2-|---3-------0-------3-------------|
A |------3-----2-----0---------0-0-|---3-------2-------3-------------|
E |------0-----3-----0---------0-0-|---0-------3-------0-------------|   
   Oh, peace train take this coun-try,    come take me home again,

         C     G    C                 F     C          F
E |------3-----3----3---3---3----|----0-----3----------0----0--0----|
B |------1-----1----1---1---1----|----1-----1----------1----1--1----|
G |------0-----0----0---0---0----|----2-----0----------2----0--2----|
D |------2-----0----2---0---2----|----3-----2----------3----3--3----|
A |------3-----2----3---3---3----|----3-----3----------3----3--3----|
E |------0-----3----0---0---0----|----0-----0----------0----0--0----|
   Now, I've been smiling lately, thinking a-bout the good things to come,

    F  G      Am               F        G       F
E |-0--3------0--------0-0--|--0--------3-------0-------------|
B |-1--1------1--------3-1--|--1--------1-------1-------------|
G |-2--0------2--------2-2--|--2--------0-------2-------------|
D |-3--0------2--------2-2--|--3--------0-------3-------------|
A |-3--2------0--------0-0--|--3--------2-------3-------------|
E |-0--3------0--------0-0--|--0--------3-------0-------------|
   And I be-lieve it could be,   some-thing good  has begun

================================================================================

Chorus

   
E |---------------------|-----------------|
B |----1-----/3----/5---|--5-----3---1----|
G |---------------------|-----------------|
D |----2-----/3----/5---|--5-----3---2----|
A |---------------------|-----------------|
E |---------------------|-----------------|
   Oh, peace train sound- ing   loud-er,   

     F  C               F     F  G   Am             F      G              F
E |--0--3---------------0-----0--3---0---|----------0------3--------------0----|
B |--1--1---------------1-----1--1---1---|----------1------1--------------1----|
G |--2--0---------------2-----2--0---2---|----------2------0--------------2----|
D |--3--2---------------3-----3--0---2---|----------3------0--------------3----|
A |--3--3---------------3-----3--2---0---|----------3------2--------------3----|
E |--0--0---------------0-----0--3---0---|----------0------3--------------0----|
   Glide on the peace train ,(Oo-ah, ee-ah, oo-ah!)   Come on the peace train,

E |------------------|-----------------|
B |---1-----/3---/5--|--5-----3---1----|
G |------------------|-----------------|
D |---2-----/3---/5--|--5-----3---2----|
A |------------------|-----------------|
E |------------------|-----------------|
Yes, peace train  ho  -ly   roll-er,   

     F        C               F            F  G  Am  
E |--0--------3---------------0--------|---0--3---0--------------|
B |--1--------1---------------1--------|---1--1---1--------------|
G |--2--------0---------------2--------|---2--0---2--------------|
D |--3--------2---------------3--------|---3--0---2--------------|
A |--3--------3---------------3--------|---3--2---0--------------|
E |--0--------0---------------0--------|---0--3---0--------------|
     Everyone jump upon the peace train, (Oo-ah, ee-ah, oo-ah!)

     F     G               F
E |--0-----3---------------0---------|
B |--1-----1---------------1---------|
G |--2-----0---------------2---------|
D |--3-----0---------------3---------|
A |--3-----2---------------3---------|
E |--0-----3---------------0---------|
      Come on now, peace train

================================================================================

Verse 3

     C   G    C             F  C                 F
E |--3---3----3--3--3----|--0--3-----------------0----0--0--|
B |--1---1----1--1--1----|--1--1-----------------1----1--1--|
G |--0---0----0--0--0----|--2--0-----------------2----0--2--|
D |--2---0----2--0--2----|--3--2-----------------3----3--3--|
A |--3---2----3--3--3----|--3--3-----------------3----3--3--|
E |--0---3----0--0--0----|--0--0-----------------0----0--0--|
    Get your bags together, go bring your good friends too,

        F    G    Am             F     G            F
E |-----0----3----0------0-0-|---0-----3------------0---------|
B |-----1----1----1------3-1-|---1-----1------------1---------|
G |-----2----0----2------2-2-|---2-----0------------2---------|
D |-----3----0----2------2-2-|---3-----0------------3---------|
A |-----3----2----0------0-0-|---3-----2------------3---------|
E |-----0----3----0------0-0-|---0-----3------------0---------|   
    ‘Cause it's getting near-er,   it soon will be with you,

      C   G    C              F      C           F
E |---3---3----3---3---3--|---0------3-----------0----0--0----|
B |---1---1----1---1---1--|---1------1-----------1----1--1----|
G |---0---0----0---0---0--|---2------0-----------2----0--2----|
D |---2---0----2---0---2--|---3------2-----------3----3--3----|
A |---3---2----3---3---3--|---3------3-----------3----3--3----|
E |---0---3----0---0---0--|---0------0-----------0----0--0----|
    And come and join the living,   it's not so far from you,  

     F   G     Am             F       G        F
E |--0---3------0------0-0-|--0-------3--------0-------------|
B |--1---1------1------3-1-|--1-------1--------1-------------|
G |--2---0------2------2-2-|--2-------0--------2-------------|
D |--3---0------2------2-2-|--3-------0--------3-------------|
A |--3---2------0------0-0-|--3-------2--------3-------------|
E |--0---3------0------0-0-|--0-------3--------0-------------|
    And it's getting near-er,   soon it will all be true
 
================================================================================

Chorus

    
E |------------------|-----------------|
B |-1-----/3----/5---|--5-----3---1----|
G |------------------|-----------------|
D |-2-----/3----/5---|--5-----3---2----|
A |------------------|-----------------|
E |------------------|-----------------|
Oh, peace train sound- ing   louder ,  

     F  C               F      F  G   Am     
E |--0--3---------------0---|--0--3---0--------------|
B |--1--1---------------1---|--1--1---1--------------|
G |--2--0---------------2---|--2--0---2--------------|
D |--3--2---------------3---|--3--0---2--------------|
A |--3--3---------------3---|--3--2---0--------------|
E |--0--0---------------0---|--0--3---0--------------|
   Glide on the peace train , (Oo-ah, ee-ah, oo-ah!),

     F       G             F
E |--0-------3-------------0----------------|
B |--1-------1-------------1----------------|
G |--2-------0-------------2----------------|
D |--3-------0-------------3----------------|
A |--3-------2-------------3----------------|
E |--0-------3-------------0----------------|
       Come on the peace train, peace train

================================================================================

Break
          
E |--3-3-3----1---1-|--0---0--0-----1--|
B |--5-5-5----3---3-|--1---1--1-----3--|
G |--0-0-0----0---0-|--0---0--0-----0--|
D |--5-5-5----3---3-|--2---2--2-----3--|
A |-----------------|--3---3--3--------|
E |-----------------|------------------|

      F   C     F    F  G  Am        F      G      F 
E |---0---3-----0--|-0--3--0---|-----0------3------0---------|
B |---1---1-----1--|-1--1--1---|-----1------1------1---------|
G |---2---0-----2--|-2--0--2---|-----2------0------2---------|
D |---3---2-----3--|-3--0--2---|-----3------0------3---------|
A |---3---3-----3--|-3--2--0---|-----3------2------3---------|
E |---0---0-----0--|-0--3--0---|-----0------3------0---------|
                    Oo-oo, oo,        oo-oo, oo, oo-oo   

================================================================================

Verse 4

          C    G     C               F     C           F            F(loud)
E |-------3----3-----3----------|----0-----3-----------0------------0--|
B |-------1----1-----1----------|----1-----1-----------1------------1--|
G |-------0----0-----0----------|----2-----0-----------2------------2--|
D |-------2----0-----2----------|----3-----2-----------3------------3--|
A |-------3----2-----3----------|----3-----3-----------3------------3--|
E |-------0----3-----0----------|----0-----0-----------0------------0--|
   Now, I've been crying lately, thinking a-bout the world as it is,

    F   G      Am             F       G        F
E |-0---3------0------0-0-|---0-------3--------0-----------|
B |-1---1------1------3-1-|---1-------1--------1-----------|
G |-2---0------2------2-2-|---2-------0--------2-----------|
D |-3---0------2------2-2-|---3-------0--------3-----------|
A |-3---2------0------0-0-|---3-------2--------3-----------|
E |-0---3------0------0-0-|---0-------3--------0-----------|
   Why must we go on hat-ing,   why can't we live in bliss?

           C   G       C               F      C         F
E |--------3---3-------3---3---3---|---0------3---------0----0--0----|
B |--------1---1-------1---1---1---|---1------1---------1----1--1----|
G |--------0---0-------0---0---0---|---2------0---------2----0--2----|
D |--------2---0-------2---0---2---|---3------2---------3----3--3----|
A |--------3---2-------3---3---3---|---3------3---------3----3--3----|
E |--------0---3-------0---0---0---|---0------0---------0----0--0----|
   'Cause out on the edge of darkness   there rides a peace train,

         F     G    Am                  F         G       F
E |------0-----3----0------0-0-|--------0---------3-------0-------------|
B |------1-----1----1------3-1-|--------1---------1-------1-------------|
G |------2-----0----2------2-2-|--------2---------0-------2-------------|
D |------3-----0----2------2-2-|--------3---------0-------3-------------|
A |------3-----2----0------0-0-|--------3---------2-------3-------------|
E |------0-----3----0------0-0-|--------0---------3-------0-------------|
   Oh, peace train take this coun-try,     come take me home again

================================================================================

Chorus
    
E |------------------|-----------------|
B |-1-----/3----/5---|--5-----3---1----|
G |------------------|-----------------|
D |-2-----/3----/5---|--5-----3---2----|
A |------------------|-----------------|
E |------------------|-----------------|
Oh, peace train sound- ing   loud-er,  

     F  C               F     F  G   Am              F      G             F    
E |--0--3---------------0--|--0--3---0---|-----------0------3-------------0----|
B |--1--1---------------1--|--1--1---1---|-----------1------1-------------1----|
G |--2--0---------------2--|--2--0---2---|-----------2------0-------------2----|
D |--3--2---------------3--|--3--0---2---|-----------3------0-------------3----|
A |--3--3---------------3--|--3--2---0---|-----------3------2-------------3----|
E |--0--0---------------0--|--0--3---0---|-----------0------3-------------0----|
   Glide on the peace train ,(Oo-ah, ee-ah, oo-ah!)   Come on the peace train,

E |------------------|-----------------|
B |---1-----/3---/5--|--5-----3---1----|
G |------------------|-----------------|
D |---2-----/3---/5--|--5-----3---2----|
A |------------------|-----------------|
E |------------------|-----------------|
Yes, peace train  ho  -ly   roll-er ,  

     F       C                F          F  G   Am    
E |--0-------3----------------0------|---0--3---0--------------|
B |--1-------1----------------1------|---1--1---1--------------|
G |--2-------0----------------2------|---2--0---2--------------|
D |--3-------2----------------3------|---3--0---2--------------|
A |--3-------3----------------3------|---3--2---0--------------|
E |--0-------0----------------0------|---0--3---0--------------|
    Everyone jump upon the peace train, (Oo-ah, ee-ah, oo-ah!)

      F       G            F 
E |---0-------3------------0---------|
B |---1-------1------------1---------|
G |---2-------0------------2---------|
D |---3-------0------------3---------|
A |---3-------2------------3---------|
E |---0-------3------------0---------|
   Come on, come on, come on,   

     F      G   Am                     F     G       
E |--0------3----0------0-0-|----------0-----3-----------|
B |--1------1----1------3-1-|----------1-----1-----------|
G |--2------0----2------2-2-|----------2-----0-----------|
D |--3------0----2------2-2-|----------3-----0-----------|
A |--3------2----0------0-0-|----------3-----2-----------|
E |--0------3----0------0-0-|----------0-----3-----------|
       Come on peace train,    yeah!  Yes, its the 

                                             F  C      F
     E |-------------------|---------------|-0--1------0-|
     B |--1---1--/3--------|--/5--5---3--1-|-1--1------1-|
     G |-------------------|---------------|-2--0------2-|
     D |--2---2--/3--------|--/5--5---3--2-|-3--2------3-|
     A |--3----------------|---------------|-3--3------3-|
     E |--3----------------|---------------|-0--0------0-|

peace traaaaaaaaaaaaaaaaaaaaaaaaaaaaain-!

     F  G  Am             F      G                F
E |--0--3--0------0-0-|---0------3----------------0-------------------|
B |--1--1--1------3-1-|---1------1----------------1-------------------|
G |--2--0--2------2-2-|---2------0----------------2-------------------|
D |--3--0--2------2-2-|---3------0----------------3-------------------|
A |--3--2--0------0-0-|---3------2----------------3-------------------|
E |--0--3--0------0-0-|---0------3----------------0-------------------|
   (Oo-ah, ee-ah, oo-ah)   Come on, now, peace train, oh, peace train


================================================================================

Outro (Repeats & fades)
      C                 Am                Em/B              F         G

E |--------0----0---|--------0----0----|--------0-----0--|--1--------3----|
B |--------1----1---|--------1----1----|--------0-----0--|--1--------3----|
G |--------0----0---|--------2----2----|--------2-----2--|--2--------0----|
D |--------2----2---|--------2----2----|--------2-----2--|--3--------0----|
A |---3----3----3---|---0--------------|---2-------------|--3--------2----|
E |-----------------|------------------|-----------------|--1--------3----|

==END======END======END======END======END======END======END======END======END===
Tap to rate this tab
 
# A B C D E F G H I J K L M N O P Q R S T U V W X Y Z