Song name
# A B C D E F G H I J K L M N O P Q R S T U V W X Y Z

Cat Stevens - Sad Lisa tab

My first tab, feel free to contact me with any questions/ comments/ concerns! I will 
make edits if you'd like!

(/) Slide Up  (\) Slide Down  (h) Hammer On  (p) Pull Off  (b) Bend (r) Release (v) Vibrato

E|--------0--3--0-----------------------0--3--0---------------------------|
B|-----0------------3------3---------0------------3------3----------------|
G|------------------------------------------------------------------------|           (x3)
D|------------------------------------------------------------------------|
A|-----------------------0------------------------------0-----------------|
E|--0----------------------------0----------------------------------------|



E|--0--0--2--3--2--0--2--3--2--3--2--0--------------|
B|---------------------0----------------------------|
G|--------------------------------------------------|
D|--------------------------------------------2-----|
A|------------------0-----0-----0------0------------|
E|------0-------------------------------------------|



E|--3--2-----0--2--3--5--7--------|
B|---------3--0-------------------|
G|---------------------------0----|
D|--------------------------------|
A|------0-------------------------|
E|--------------------------------|



e|--3--5--7--5--7--10--3--5---------|
B|--------------------------0-------|
G|----------------------------------|
D|---------0------------------------|
A|----------------------0-----------|
E|----------------------------------|



eI--3--2--3--5--3--2--0--2--3-----------|
B|--------------------------------------|
G|--------------------------------------|
D|---------------------0------0---------|
A|------0-------------------------------|
E|--0----------0--0-------------0-------|



e|--3--2--0----0--2--3--5--7---------|
B|------------3----------------------|
G|------------------------------0----|
D|-----------------------------------|
A|------0------------0------0--------|
E|-----------------------0-----------|



e|--3--5--7--5--7--10--3--5----------|
B|-----------------------------------|
G|---------0-------------------------|
D|---------0-------------------------|
A|------0------0--------0------------|
E|--0------------------------0--0----|



e|--3--2--3--5--3--2--0--2--3---------|
B|--0---------------------------------|
G|------------------------------------|
D|------------------------------------|
A|------0------0------0------0--------|
E|--0------0------0------0------0-----|



e|--3--2--3--5--3--2--0----0-------------|
B|---------------------------4-----------|
G|------------------------------0--------|  (Repeat all)
D|---------------------------------------|
A|------0------0------0------------------|
E|--0-------0-----0-------0--------------|
Tap to rate this tab
# A B C D E F G H I J K L M N O P Q R S T U V W X Y Z