Song name
# A B C D E F G H I J K L M N O P Q R S T U V W X Y Z

Cat Stevens - How Can I Tell You tab

Cat Stevens
How Can I Tell You

Capo 7th fret


Intro:

     Em                                      A
e|-------------------|-------------------|-------------------|-------------------|
B|---1---------------|-------------------|---3---------------|-----------------0-|
G|---2---------------|-------------------|---2---------------|---------0h2--2----|
D|---2---------------|-------------------|---0---------------|-----------------0-|
A|---0---------------|-------------------|---0---------------|-------------------|
E|-------------------|-------------------|-------------------|---------0h2--2----|
   
   D    G                Em          A                         D    G 
e|-------------------|-------------------|-------------------|-------------------|
B|------0h1----------|---0---------------|-----------------0-|------0h1----------|
G|-0-----------------|-------2---0-------|---------0h2--2----|-2h0------------0--|
D|------0h2----------|---0-----------4---|---4-------------0-|------0h2----------|
A|-------------------|---0---3---2-------|-----0-------------|------------2------|
E|-3-----------------|---------------5---|---------0h2--2----|-3-----------------|

     Em          A                         D    G
e|-------------------|-------------------|-------------------|-------------------|
B|---0---------------|-----------------0-|------0h1-------1--|--------1-------1--|
G|-------2---0-------|---------0h2--2----|-2h0------------0--|----0-------0------|
D|---0-----------4---|---4-------------0-|------0h2----------|------2-------0----|
A|---0---3---2-------|-----0-------------|------------3------|--3-------2--------|
E|---------------5---|---------0h2--2----|-3-----------------|-------------------|


Verse:

  Em                  A                   D  Dsus4  D  Dsus2  G
e|-------------------|-------------------|-------------------|-------------------|
B|----------------1--|--------3-------3--|-------1---0-------|--------1-------1--|
G|------------2------|----2-------2------|----0---------1h0--|----0-------0------|
D|------2-------2----|------0-------0----|-------2------0----|------2-------3----|
A|--0-------0--------|-------------------|-------------------|--3-------3--------|
E|-------------------|--2-------2--------|--3--------3-------|-------------------|
            How can I tell you      that I love               you                   

  Em                  A                   D  Dsus4  D  Dsus2  G
e|-------------------|-------------------|-------------------|-------------------|
B|--------1-------1--|--------3-------3--|-------1---0-------|--------1-------1--|
G|----2-------2------|----2-------2------|----0---------1h0--|----0-------0------|
D|------2-------2----|------0-------0----|-------2------0----|------2-------0----|
A|--0-------0--------|-------------------|-------------------|--3-------2--------|
E|-------------------|--2-------2--------|--3--------3-------|-------------------|
   I love              you        but I can't think of right words to say

  Em                  A                   D  Dsus4  D  Dsus2  G
e|-------------------|-------------------|-------------------|-------------------|
B|--------1-------1--|--------3-------3--|-------1---0-------|--------1-------1--|
G|----2-------2------|----2-------2------|----0---------1h0--|----0-------0------|
D|------2-------2----|------0-------0----|-------2------0----|------2-------2----|
A|--0-------0--------|-------------------|-------------------|--3-------3--------|
E|-------------------|--2-------2--------|--3--------3-------|-------------------|
            I long to tell you     that I'm always thinking of you       I'm always

  Em                  A                   D  Dsus4  D  Dsus2  G
e|-------------------|-------------------|-------------------|-------------------|
B|------3---1---0----|--------3-------3--|-------1---0-------|--------1-------1--|
G|----2-----------2--|----2-------2------|----0---------1h0--|----0-------0------|
D|------2-------2----|------0-------0----|-------2------0----|------2-------2----|
A|--0-------0--------|-------------------|-------------------|--3-------3--------|
E|-------------------|--2-------2--------|--3--------3-------|-------------------|
   thinking of         you          but my words just blow away

  D                   G                   Em                   A
e|-------------------|-------------------|-------------------|-------------------|
B|-------1---0-------|--------1-------1--|-0h1-----1-------1-|--------3----------|
G|---------------1---|----0-------0------|-----2-------2-----|----2-----2h0--0h2-|
D|-------2-------0---|------2-------2----|-------2-------2---|------0--------0---|
A|-------------------|--3-------3--------|-0---------0-------|-------------------|
E|--3--------3-------|-------------------|-------------------|--2-------2--------|
        just blow away                  It always ends up to one thing, honey and I

  D  Dsus4  D  Dsus2  G                   Em             A
e|-------------------|-------------------|-------------------|-------------------|
B|--0----1---0-------|--------1-------1--|---0---------------|-----------------0-|
G|----0---------1h0--|----0-------0------|-------2---0-------|---------0h2--2----|
D|-------2------0----|------2-------2----|---0-----------4---|-----------------0-|
A|-------------------|--3-------3--------|---0---3---2-------|-------------------|
E|--3--------3-------|-------------------|---------------5---|---------0h2--2----|
  can't think of right words to say

  D                   G                   Em             A
e|-------------------|-------------------|-------------------|-------------------|
B|------0h1----------|--------1----------|---0---------------|-----------------0-|
G|-2h0---------------|----0-------0------|-------2---0-------|---------0h2--2----|
D|------0h2----------|------2-------0----|---0-----------4---|-----------------0-|
A|-------------------|--3-------2--------|---0---3---2-------|-------------------|
E|-3-----------------|-------------------|---------------5---|---------0h2--2----|
        
  D                   G
e|-------------------|-------------------|
B|------0h1-------1--|--------1----------|
G|-2h0------------0--|----0-------0------|
D|------0h2----------|------2-------0----|
A|------------3------|--3-------2--------|
E|-3-----------------|-------------------|


Wherever I am girl, I'm always walking with you
I'm always walking with you, but I look and you're not there
Whoever I'm with, I'm always, always talking to you
I'm always talking to you, and I'm sad that
You can't hear, sad that you can't hear
It always ends up to one thing, honey,
When I look and you're not there

I need to know you, need to feel my arms around you
Feel my arms around you, like a sea around a shore
And - each night and day I pray, in hope
That I might find you, in hope that I might
Find you, because heart's can do no more
It always ends up to one thing honey, still I kneel upon the floor

How can I tell you that I love you, I love you
But I can't think of right words to say
I long to tell you that I'm always thinking of you
I'm always thinking of you....
It always ends up to one thing honey
And I can't think of right words to say

Tap to rate this tab
 
# A B C D E F G H I J K L M N O P Q R S T U V W X Y Z