Song name
# A B C D E F G H I J K L M N O P Q R S T U V W X Y Z

Cat Stevens - Father And Son tab

This is one of the best acoustic guitar solos ever,
I reckon. Very easy to play- just listen to the song for timing.
NOTE: This is tuned to the version from the album-
'Tea For The Tillerman.' It is different to the one on youtube
with 11 million views which is tuned 1 or 2 steps down- so dont play this along with the 
Youtube version.

Solo:

e]-10/12--10--10--10--12----------------------------------------------------|
B]------------------------8--8--8--10--12---8--10--12--12b--10--8-----------|
G]--------------------------------------------------------------------------|
D]--------------------------------------------------------------------------|
A]--------------------------------------------------------------------------|
E]--------------------------------------------------------------------------|

e]-0--3--2--3--2--0-----------------------------------0---------------------|
B]-------------------3--1--3---0--1--3--0--1--3----3-----------------0------|
G]-------------------------------------------------------0--0--0--2---------|
D]--------------------------------------------------------------------------|
A]--------------------------------------------------------------------------|
E]--------------------------------------------------------------------------|

e]--------------------------------------------------------------------------|
B]-------0---1--0--0-----------------0--3----1---1p0------------------------|
G]-0--2---------------2--0-----0----------------------0---------------------|
D]--------------------------0----------------------------------2--0---------|
A]-------------------------------------------------------------------2------|
E]----------------------------------------------------------------------3---|

Thats all, then you go back into the chords.
Tabbed by Jun3Man.
Tap to rate this tab
 
# A B C D E F G H I J K L M N O P Q R S T U V W X Y Z