Song name
# A B C D E F G H I J K L M N O P Q R S T U V W X Y Z

Cat Stevens - How Can I Tell You tab

"How Can I Tell You"
 - Cat Stevens

Tabbed by Nellie Wilson

Watch Video - http://youtu.be/Uh4RItvbQKI

Intro
[2nd Guitar]
Capo: 7th Fret
All chords are relative to the capos position

E|--------------------|
B|---------------0h1--|
G|--0h2-2p0-0---------|
D|---------------0h2--|
A|--------------------|
E|--0h2-2h3-3---------|

|----------------------------------------|
|--0--------------------------------0h1--|
|------2--0------------0h2-2p0-0---------|
|--0----------4~~-------------------0h2--|
|------3--2------------------------------|
|-------------5~~------0h2-2h3-3---------|

[2nd Guitar w/ lyrics]
Verses
          Am                 D         G    G/C   G     C   
E|-------------------------2--------------------------------------------|
B|--------1-------1------3---3----------0---1---0------------1----------|
G|------2-------2------2-------2---2------0---0---0---0-----0-----0-----| repeat
D|----2-------2------0-----------0----------2---0---------2-------------|
A|--0-------0-------------------------------------------3-------3----2--|
E|--------------------------------------3-----------3-------------------|

Am              D          G  G/C  G   C
 How can I tell you that I love you 
Am       D         G    G/C      G              C 
 I love you But I can't think of right words to say 
Am              D            G  G/C   G         C
 I long to tell you that I'm always thinking of you 
Am                      D           G     G/C   G     C
 I'm always thinking of you, but my words just blow away

   G G/C G  C
...just blow away 

Am                    D                      G    G/C   G      C
 It always ends up to one thing, honey and I can't think of right words to say 

 Wherever I am girl, I'm always walking with you 
 I'm always walking with you, but I look and you're not there 
 Whoever I'm with, I'm always, always talking to you 
 I'm always talking to you, and I'm sad that you can't hear
 sad that you can't hear 

 It always ends up to one thing, honey when I look and you're not there 
 
 I need to know you, need to feel my arms around you 
 Feel my arms around you, like a sea around a shore  

 And each night and day I pray in hope that I might find you
 In hope that I might find you because heart's can do no more  

 It always ends up to one thing honey, still I kneel upon the floor 

 How can I tell you that I love you
 I love you but I can't think of right words to say 
 I long to tell you that I'm always thinking of you 
 I'm always thinking of you.... 

----------------------------------------------------------------------------------

[1st Guitar]
Standard Tuning

Em              A          D  Dsus4 D Dsus2   G
 How can I tell you that I love you 
Em              A          D  Dsus4 D Dsus2   G 
 I love you But I can't think of right words to say 
Em              A          D  Dsus4 D Dsus2   G
 I long to tell you that I'm always thinking of you 
Em              A          D  Dsus4 D Dsus2   G
 I'm always thinking of you, but my words just blow away

 D Dsus4 D Dsus2 G 
...just blow away 

Em                    A                      D    Dsus4   D  Dsus2     G
 It always ends up to one thing, honey and I can't think of right words to say 

 Wherever I am girl, I'm always walking with you 
 I'm always walking with you, but I look and you're not there 
 Whoever I'm with, I'm always, always talking to you 
 I'm always talking to you, and I'm sad that you can't hear
 sad that you can't hear 

 It always ends up to one thing, honey when I look and you're not there 
 
 I need to know you, need to feel my arms around you 
 Feel my arms around you, like a sea around a shore  

 And each night and day I pray in hope that I might find you
 In hope that I might find you because heart's can do no more  

 It always ends up to one thing honey, still I kneel upon the floor 

 How can I tell you that I love you
 I love you but I can't think of right words to say 
 I long to tell you that I'm always thinking of you 
 I'm always thinking of you.... 


Chords:
Dsus4 xx0233
Dsus2 xx0230
Tap to rate this tab
# A B C D E F G H I J K L M N O P Q R S T U V W X Y Z