Guitaretab - guitar tabs
Song name
# A B C D E F G H I J K L M N O P Q R S T U V W X Y Z

Cat Stevens - Katmando tab

Intro: Capo at 3rd fret
[ Tab from: http://www.guitaretab.com/c/cat-stevens/80828.html ]
     D       D4        F        G/D          C   C4 C
E |--2-------2-h3----|-/5---------/7--7-----|----0-h1-0---------|
B |--3------3-----3-|-/6----6----/8----8--- |-----------1-------|
G |-----2------------|-----5--------------7-|-------------0-----| (x2)
D |--0-------0-------|--0----------0--------|-----------------2-|
A |------------------|----------------------|--3----------------|
E |------------------|----------------------|-------------------|

      D       D/A  C               D       D/A  C             C
E |---2--2---------0-----0-----|---2--2---------0------0--------|
B |---3-----2------1--------1--|---3-----2------1---------1--1--|
G |-------------------0--------|-------------------0------------| (x2)
D |---0------------------------|---0----------------------------|
A |------------0--h3-----------|------------0--h3---------------|
E |----------------------------|--------------------------------|

Related for Katmando tab
×
Katmando