Song name
# A B C D E F G H I J K L M N O P Q R S T U V W X Y Z

Cataract - Nothings Left tab

Intro

Gtr 1
e----------------------------------------------------------------|
b----------------------------------------------------------------|
g---8-------8-9------8-------8-9------8-------8-9----------------|
d-----11-10-----11-----11-10-----11-----11-10-----11-------------|
A-0----------------0----------------0----------------------------|
E-0----------------0----------------0-----------------0000000000-|

Gtr 2
e----------------------------------------------------------------|
b----------------------------------------------------------------|
g----------------------------------------------------------------|
d----------------------------------------------------------------|
A-0----------------0----------------0----------------------------|
E-0----------------0----------------0-----------------0000000000-|


Verse - 2x
Gtr 1 and 2

e-------------------------------------------------------------|
b-------------------------------------------------------------|
g-------------------------------------------------------------|
d-------------------------------------------------------------|
A-0--0--0--0--0--0--7-5-4--0--0--0--0--0--0--4-5-7---1---1-2--|
E-0--0--0--0--0--0--5-3-2--0--0--0--0--0--0--2-3-5----443-----|
  |-------This part---------------------------------------| -> play after this part   then this...


Gtr 1 and 2

e-------------------------|
b-------------------------|
g-------------------------|
d-------------------------|
A-00--00-75---00--00-7--5-|
E-00--00-53---00--00-5--3-|


wait for the other parts... they be up in a cuple of days
Tap to rate this tab
 
# A B C D E F G H I J K L M N O P Q R S T U V W X Y Z