Guitaretab - guitar tabs
Song name
# A B C D E F G H I J K L M N O P Q R S T U V W X Y Z

Catarrhal Noise - Bele Giornate tab

-------------------------------------------------------------------------------
			     BELE GIORNATE  Catarrhal Noise
-------------------------------------------------------------------------------
Tabbed by: Hug da Casal 
Email: hug88@libero.it

Intro
e|---------------------------------------------------------------------------|
B|--------1--------------------1-------------------1-------------------------|
G|-----0-----0-----0--------2-----2-----2-------2-----2-----2----------------|
D|-----2--------2-----------2--------2----------3--------3-------------------|
A|-3--------------------0----------------------------------------------------|
E|------------------------------------------1--------------------------------|
[ Tab from: http://www.guitaretab.com/c/catarrhal-noise/67453.html ]
e|---------------------------------------------------------------------------|
B|-------3-------------------------------------------------------------------|
G|----4-----4-----4----------------------------------------------------------|
D|----5--------5-------------------------------------------------------------|
A|---------------------------------------------------------------------------|
E|-3-------------------------------------------------------------------------|

Chorus
e|---------------------------------------------------------------------------|
B|---------------------------------------------------------------------------|
G|--7------------------------------------------------------------------------|
D|--7---7---9---5------------------------------------------------------------|
A|--5---7---9---5------------------------------------------------------------|
E|------5---7---3------------------------------------------------------------|

Ciao Fioi Visitate il sito dei miei amici DozenEyes

Visit : www.myspace.com/dozeneyes

| /  slide up
| \  slide down
| h  hammer-on
| p  pull-off
| ~  vibrato
| +  harmonic
| x  Mute note
===============================================================================

Related for Bele Giornate tab