Song name
# A B C D E F G H I J K L M N O P Q R S T U V W X Y Z

Catastrophic - Terraforming tab

                          CATASTROPHIC - TERRAFORMING
                        From the Album - THE CLEANSING
                          Copyright: METAL BLADE 2000
                           Version 1.0 - Feb,7 2002

Transcribed By: James Williams (Inverted)

For Questions, Comments, Newest Version, or Corrections contact
 Inverted: at Inverted_one@hotmail.com

Check Out Death8699.com, With More Transcriptions On It:
 http://www.death8699.com

.  - palm mute           /  - slide up to
\  - slide down to       ~  - vibrato
h  - hammer on           b  - Bend
p  - pull off            Suffixes for bend
t  - tap                 f  - full bend    h - half bend
ph - pinched harmonic    q  - quarter bend t - tap bend
*  - see comment         ^  - Hold bend    r release bend
x  - Stuccatto           ~  - vibrato bend
,  - slight palm mute    () - ghost note, sustained note
"  - tremolo note        <> - Trill

tuning; D"G"C"F"A"d"

Riff 1 (I know it looks funny but that's how it's played.)
|---------------------------------------------------------|
|---------------------------------------------------------|
|---------------------------------------------------------|
|--5/3----------2----------1---5/3----------2----------1--|
|--3/1----------2----------1---3/1----------2----------1--|
|-------0-0-3-1--------1-2----------0-0-3-1--------1-2----|
pm      . . . .        . .          . . . .        . .

Riff 2
|---------------------------------------------|
|---------------------------------------------|
|---------------------------------------------|
|--5----4-----7----8-----5----4-----7----8----|
|--3----2-----5----6-----3----2-----5----6----|
|--3----2-----5----6-----3----2-----5----6----|

Riff 3
|------------------------------------------------------------|
|------------------------------------------------------------|
|------------------------------------------------------------|
|------2------2------2---------------2------2------2---------|
|------2------2------2------3--------2------2------2------3--|
|--0-0----0-0----0-0----0-0-1----0-0----0-0----0-0----0-0-1--|
pm . .    . .    . .    . .      . .    . .    . .    . .

Riff 4
|------------------------------------------------------------|
|------------------------------------------------------------|
|------------------------------------------------------------|
|------3---------5------------------3---------5--------------|
|------1----4----3----3--3-3-3------1----4----3----3--3-3-3--|
|--0-0----0-2-------0-1--1-1-1--0-0----0-2-------0-1--1-1-1--|
pm . .    .         .           . .    .         .

Thats the whole song. Just listen to the CD for the strucrure.

Check out my other tabs by Hypocrisy, Grave, Obituary, Catastophic
and Six Feet Under.
Tap to rate this tab
# A B C D E F G H I J K L M N O P Q R S T U V W X Y Z