Song name
# A B C D E F G H I J K L M N O P Q R S T U V W X Y Z

Catch 22 - Walking Away tab

Catch 22 - Walking Away - Guitar Tab

--------------------------------------------------------------------------------

Not taking the credit as it is not my work, but awesome sone nonetheless

End of bass intro
e|---------------- --------|
B|-------------------------|
G|--10--10----10-10-10-10--| {1x}
D|-------------------------|
A|--8---8-----8--8--8--8---|
E|-------------------------|

Slowly strum ska-style under trumpet
e|--6----8-----6----8---|
B|--6----8-----8----10--|
G|--7----8-----8----10--| {4x}
D|--8----10----8----10--|
A|--8----10----6----8---|
E|--6----8--------------|

Pause, then speed up a lot
e|--6----8-----6----8---|
B|--6----8-----8----10--|
G|--7----8-----8----10--| {6x}
D|--8----10----8----10--|
A|--8----10----6----8---|
E|--6----8--------------|

Keep playing same chords thru verse {4x}

Keep playing same chords under horn chorus {2x}

Verse {4x}

Chorus {4x}

Bridge
e|--6-6-6-6--6-6-6-6--8--8--8--8---6-6-6-6--|
B|--8-8-8-8--6-6-6-6--8--8--8--8---6-6-6-6--|
G|--8-8-8-8--7-7-7-7--8--8--8--8---7-7-7-7--| {3x}
D|--8-8-8-8--8-8-8-8--10-10-10-10--8-8-8-8--|
A|--6-6-6-8--8-8-8-8--10-10-10-10--8-8-8-8--|
E|-----------6-6-6-6--8--8--8--8---6-6-6-6--|

Lead into trumpet/trombone solo
e|--6-6-6-6--6-6-6-6--6—6-6-6--8--8--8—8------|
B|--8-8-8-8--6-6-6-6--8-8-8-8--10-10-10-10--------|
G|--8-8-8-8--7-7-7-7--8-8-8-8--10-10-10-10--------|
D|--8-8-8-8--8-8-8-8--8-8-8-8--10-10-10-10--------|
A|--6-6-6-8--8-8-8-8--6-6-6-6--8--8--8--8---------|
E|-----------6-6-6-6------------------------------|

Play verse/chorus chords during trumpet/trombone solo

At the end of solo
e|---6-6----------------------------------------------------|
B|---6-6----------------------------------------------------|
G|---7-7----------------------------------------------------| {8x}
D|---8-8----------------------------------------------------|
A|---8-8----------------------------------------------------|
E|--6-6-----------------------------------------------------|

Bass solo
“Walkin, walkin, walkin away, so I said…”
Verse chords again {2x}

Play bridge again
“things weren’t better then…”

One last chorus

End with
e|--6--
B|--6--|
G|--7--|
D|--8--|
A|--8--|
E|--6--|
Keep strumming
Tap to rate this tab
 
# A B C D E F G H I J K L M N O P Q R S T U V W X Y Z