Guitaretab - guitar tabs
Song name
# A B C D E F G H I J K L M N O P Q R S T U V W X Y Z

Catch 22 - San Francisco Payphones tab

catch-22 <-> san fransisco payphones (intro)

reallly cool intro thing.

e-9--9--9--9--12-12-12-12-12-12-12-12-12-12-12-10
b-10-10-10-10-10-10-10-10-10-10-10-10-10-10-10-10
g-9--9--9--9--9--9--9--9--11-11-11-11-10-10-10-10
d------------------------------------------------
a------------------------------------------------
e------------------------------------------------
[ Tab from: http://www.guitaretab.com/c/catch-22/37069.html ]
e-9--9--9--9--x--9--9--x-7--7--x--5--5--5--5--5--5
b-10-10-10-10-x--9--9--x-9--9--x--5--5--5--5--5--5
g-9--9--9--9--x--9--9--x-9--9--x--6--6--6--6--6--6
d---------------------------------7--7--7--7--7--7
a-------------------------------------------------     
e-------------------------------------------------

played on acoustic 

i havent figured the rest out yet. i'll post it when (if) i do!

====
Related for San Francisco Payphones tab
Advertisement will be closed in 10 seconds