Song name
# A B C D E F G H I J K L M N O P Q R S T U V W X Y Z

Catch 22 - Supernothing tab

-----------------------------------------------------------------------------
			   Supernothing - Catch-22
-----------------------------------------------------------------------------

Tuning: STANDARD

Intro
e|---0-0-0-0-0-0-----0-0-0-3-3-3-3-1-1-1-3-3-1-1-3-3-3-3-3-3-3-|
B|---1-1-1-1-1-1-----1-1-1-3-3-3-3-1-1-1---------3-3-3-3-3-3-3-|
G|---0-0-0-0-0-0-----2-2-2-0-0-0-0-2-2-2---------0-0-0-0-0-0-0-|
D|-2-2-2-0-0-0-0-----2-2-2-0-0-0-0-3-3-3---------0-0-0-0-0-0-0-|
A|-3-3-3-2-2-2-2-0-0-0-0-0-2-2-2-2-3-3-3---------2-2-2-2-2-2-2-|
E|-------------------------3-3-3-3-1-1-1---------3-3-3-3-3-3-3-|

Horn Line
e|--------------------------|
B|--------------------------|
G|-5--4-5-4-2--0-2-0----5-4-|
D|-------------------3------|
A|--------------------------|
E|--------------------------|

e|-------------------------------|
B|---------5-5-4-4-2-2-0-0-------|
G|-3s5-7p5-----------------3-3-5-|
D|-------------------------------|
A|-------------------------------|
E|-------------------------------|

The rest of the song pretty much just uses these chords
e|-----------------------------------------------------------------|
B|-----------------------------------------------------------------|
G|-5-5-5-5-4-4-4-4-2-2-2-2-----------------------------------------|
D|-5-5-5-5-4-4-4-4-2-2-2-2-5-5-5-5-3-3-3-3-3-3-3-3-5-5-5-5-5-5-5-5-|
A|-3-3-3-3-2-2-2-2-0-0-0-0-5-5-5-5-3-3-3-3-3-3-3-3-5-5-5-5-5-5-5-5-|
E|-------------------------3-3-3-3-1-1-1-1-1-1-1-1-3-3-3-3-3-3-3-3-|
Tap to rate this tab
# A B C D E F G H I J K L M N O P Q R S T U V W X Y Z