Song name
# A B C D E F G H I J K L M N O P Q R S T U V W X Y Z

Catch No Glory - Library tab

CATCH NO GLORY _ LIBRARY

RIFF 1 - INTRO
----------------------|---------------------|---------------------|
----------------------|---------------------|---------------------|
-------------------4--|---------------------|---------------------|
--------4-4-4-4-4-----|----------------4----|-----------------6---|
-2-2-2----------------|-----4-4-4-4-4-------|-------6-6-6-6-6-----|
----------------------|-2-2-2---------------|-4-4-4---------------|

----------------------|
----------------------|
----------------------| Repeat 3 times and pick up speed
-----------------2----|
-------2-2-2-2-2------|
-0-0-0----------------|
Tap to rate this tab
 
# A B C D E F G H I J K L M N O P Q R S T U V W X Y Z