Song name
# A B C D E F G H I J K L M N O P Q R S T U V W X Y Z

Catfish And The Bottlemen - Collide chords

Highlighted       Show chord diagrams
-------------------------------------------------------------------------------
        COLLIDE (acoustic version) - Catfish & the Bottlemen
-------------------------------------------------------------------------------
Tabbed by: Jamie Blakeway
Email: NOYB

Tuning: Normal: Capo on 2nd Fret

(couple of extra notes at the end of 1st and 2nd bars are how i play it,
 don't think they're on the original acoustic version)

Verse:

  Em               G               C        G      C        G
e|-0--0-000-0--0-|-3--3-333------|-3--3-333-3--3-|-3--3-333-3--3-|
B|-0--0-000-0--0-|-3--3-333------|-5--5-555-3--3-|-5--5-555-3--3-|
G|-0--0-000-2--2-|-4--4-444-2--2-|-5--5-555-4--4-|-5--5-555-4--4-|
D|-2--2-222-2--2-|-5--5-555-5--5-|-5--5-555-5--5-|-5--5-555-5--5-|
A|-2--2-222-2--2-|-5--5-555-5--5-|-3--3-333-5--5-|-3--3-333-5--5-|
E|-o--o-ooo-o--o-|-3--3-333-3--3-|----------3--3-|----------3--3-|

Chorus: Bridge

   Em              G               D               C
e|-0--0-000-0-0-0|-3--3-333-3-3-3|-5--5--5--5--5-|-3--3--3--3--3-|
B|-0--0-000-0-0-0|-3--3-333-3-3-3|-7--7--7--7--7-|-5--5--5--5--5-|
G|-0--0-000-0-0-0|-4--4-444-4-4-4|-7--7--7--7--7-|-5--5--5--5--5-|
D|-2--2-222-2-2-2|-5--5-555-5-5-5|-7--7--7--7--7-|-5--5--5--5--5-|
A|-2--2-222-2-2-2|-5--5-555-5-5-5|-5--5--5--5--5-|-3--3--3--3--3-|
E|-o--o-ooo-o-o-o|-3--3-333-3-3-3|---------------|---------------|




************************************

| /   slide up
| \   slide down
| h   hammer-on
| p   pull-off
| ~   vibrato
| +   harmonic
| x   Mute note
| b   Bend
| pb  Pre-bend
| br  Bend release
| pbr Pre-bend release
| brb Bend release bend

************************************
Tap to rate this tab
# A B C D E F G H I J K L M N O P Q R S T U V W X Y Z