Song name
# A B C D E F G H I J K L M N O P Q R S T U V W X Y Z

Cathedral - Autumn Twilight tab

Band:Cathedral 
Song:Autumn Twighlight 
Album:Statik Majik
Any problems or suggestions e-mail: Airhead9756@aol.com
    
              I noticed that this song wasn't here so i figured it out for all
cathedral fans.  I haven't figured the solo out yet but it'll come soon enough.
 
e|---------------------------------------------------------------------------|
B|---------------------------------------------------------------------------|
G|------------------------------4--------------------------------------------|
D|-7----5---4---5---4--/7-7---5---4b--5----4---------------------------------|
A|-7------7-------7----------------------7----5h7----------------------------|
E|-5-------------------------------------------------------------------------|

e|---------------------------------------------------------------------------|
B|---------------------------------------------------------------------------|
G|------------------------------2--------------------------------------------|
D|-5------3---2--3---2--/5-5--3---2b--3---2----------------------------------|
A|-5--------5------5--------------------5----3h5-----------------------------|
E|-3-------------------------------------------------------------------------|

Chorus
e|---------------------------------------------------------------------------|
B|---------------------------------------------------------------------------|
G|---------------------------------------------------------------------------|
D|--7---5---9--9\7-7---7--5----9/10/7\---------------------------------------|
A|--7---5---9--9\7-7---7--5----9/10/7\---------------------------------------|
E|--5---3---7--7\5-5---5--3----7/8/-9\---------------------------------------|

After solo
e|---------------------------------------------------------------------------|
B|---------------------------------------------------------------------------|
G|---------------------------------------------------------------------------|
D|--7---9/10/9---7---9---7---5--7--------------------------------------------|
A|--7---9/10/9---7---9---7---5--7--------------------------------------------|
E|--5---7/8-/7---5---7---5---3--5--------------------------------------------|

I'll figure the rest out soon enough
Tap to rate this tab
# A B C D E F G H I J K L M N O P Q R S T U V W X Y Z