Song name
# A B C D E F G H I J K L M N O P Q R S T U V W X Y Z

Cathedrals - Unbound tab

Unbound - Cathedrals
Transcribed by Tim Ronco

https://soundcloud.com/wearecathedrals/unbound
https://www.facebook.com/WeAreCathedrals
http://www.earmilk.com/2013/09/26/cathedrals-unbound/


MAIN RIFF - INTRO/VERSE/CHORUS:
  C#m               C#m              C#m              C#m
e-----------------|----------------|----------------|----------------|
B-----------------|----------------|----------------|----------------|
G--9-9-9-9-9-9-9-9|-9-9-9-9-9-9-9-9|-9-9-9-9-9-9-9-9|-9-9-9-9-9-9-9-9|
D-----------------|----------------|----------------|----------------|
A-----------------|----------------|----------------|----------------|
E-9-9-9-9-9-9-9-9-|9-9-9-9-9-9-9-9-|9-9-9-9-9-9-9-9-|9-9-9-9-9-9-9-9-|

  B                 B                  E                      E
e-----------------|----------------|------------------------|------------------------|
B-----------------|----------------|------------------------|------------------------|
G--8-8-8-8-8-8-8-8|-8-8-8-8-8-8-8-8|-13-13-13-13-13-13-13-13|-13-13-13-13-13-13-13-13|
D-----------------|----------------|------------------------|------------------------|
A-----------------|----------------|------------------------|------------------------|
E-7-7-7-7-7-7-7-7-|7-7-7-7-7-7-7-7-|12-12-12-12-12-12-12-12-|12-12-12-12-12-12-12-12-|

  B                 B                  E                      E
e-----------------|----------------|------------------------|------------------------|
B-----------------|----------------|------------------------|------------------------|
G--8-8-8-8-8-8-8-8|-8-8-8-8-8-8-8-8|-13-13-13-13-13-13-13-13|-13-13-13-13-13-13-13-13|
D-----------------|----------------|------------------------|------------------------|
A-----------------|----------------|------------------------|------------------------|
E-7-7-7-7-7-7-7-7-|7-7-7-7-7-7-7-7-|12-12-12-12-12-12-12-12-|12-12-12-12-12-12-12-12-|

  F#                        F#
e-------------------------|------------------------|
B-------------------------|------------------------|
G--15-15-15-15-15-15-15-15|-15-15-15-15-15-15-15-15|
D-------------------------|------------------------|
A-------------------------|------------------------|
E-14-14-14-14-14-14-14-14-|14-14-14-14-14-14-14-14-|


  F#                        F#
e-------------------------|------------------------|
B-------------------------|------------------------|
G--15-15-15-15-15-15-15-15|-15-15-15-15-15-15-15-15|
D-------------------------|------------------------|
A-------------------------|------------------------|
E-14-14-14-14-14-14-14-14-|14-14-14-14-14-14-14-14-|

---continue Main Riff through entire song----|
---lead guitar shown below lyrics------------|

VERSE 1:
              C#
Having you tonight
e---------------------11-------|
B--------------9---------------|
G------------------------------|
    C#         B          E
I will, when you're   unbound
e-------------------9--------7-|
B-----------------7----7--9----|
G------------------------------|
               B                                E
Oh, there's something inside that stirs when I see you
                    F#
When you're on the down
       F#     (--mute--)  C#
I'll nurse you back to pieces


CHORUS:
             C#     B          E                 B           E
         o-oh  o-o-oh o--o-o--oh           o--o-oh  o--o-o--oh--|
e-----11-------------14-12-11----11---11-------11--14-12-11-----|
B-9---------------------------12----12-----12-14------------12--|
G---------------------------------------------------------------|
D---------------------------------------------------------------|
        F#           F#
e-------11--14-16s18-16--|
B-12s14------------------|
G------------------------|
D------------------------|


VERSE 2:
  C#                                 C#
Pick up the phone and talk like I'm crazy
              B                                 E
Oh, there's something inside that stirs when I see you
       B                            E
I'll watch as every thread undoes itself
                    F#
And when you come around
       F#
I'll nurse you back to pieces


CHORUS:
 C#          C#     B          E                 B           E
         o-oh  o-o-oh o--o-o--oh           o--o-oh  o--o-o--oh--|
e----12--11-----------14-12-11----11---11-------11--14-12-11----|
B-9---------------------------12----12-----12-14------------12--|
G---------------------------------------------------------------|
D---------------------------------------------------------------|
                    F#
When you're on the down
      F#
I'll nurse you back to pieces


BRIDGE:
e------11-11-11-9--11-14-11-14-14--11-11-14-11-9---11-|
B-9----9--9--9--9--9--9--9--9--11--11-11-11-11-9--9---|
G-9----9--9--9--9--9--9--9--9--11--11-11-11-11-9-9----|
D-11--(9)---------------------------------------------|
A-----------------------------------------------------|
E-----------------------------------------------------|

e-11-14--11-11-14-11-9-11p9h11---11-99--11-11---9-11-14-11-|
B-9--11--11-11-11-11-9-9---------9--99--9--9----9-9--9--9--|
G-9--11--11-11-11-11-9-9---------9--99--9--9----9-9--9--9--|
D----------------------------------------------------------|
A----------------------------------------------------------|
E----------------------------------------------------------|


VERSE 3:
               C#
Looking back tonight
            B       E
I said, I said, I said..
e-----------9--9------7--|
B-----------7----7-------|
G-------------------8----|
      B                  E
I'll find your missing pieces
      F#               F#
I'll love you back to pieces


OUTRO:
      C#        C#      B             E
  o-oh      o-e-oh  o-o-oh --o--o--o--------|oh
e-----19-18-14--------14-18-----16-11-------|
B------------------16-----------------12----|
G-------------------------------------------|
D-------------------------------------------|
              B                                 E
Oh, there's something inside that stirs when I see you

       F#           F#
  o--o-oh  o--o-o--oh----|
e-------11--14-16s18-16--|
B-12s14------------------|
G------------------------|
D------------------------|

Fade out


_____________________________________________________________________________
NOTES:

1) In the first verse, the F# chords are played like this
      F# (low)          F# (high)
e-----------------------------------------------|
B-----------------------------------------------|
G--3-3-3-3-3-3-3-3-slide-15-15-15-15-15-15-15-15|
D-----------------------------------------------|
A-----------------------------------------------|
E-2-2-2-2-2-2-2-2-slide-14-14-14-14-14-14-14-14-|


2) If you listen closely, they use a delay-ish effect that makes it sound kinda like the
   G string is played twice as much as the E string. Kinda like this:

  C#m               B
e-----------------|----------------|
B-----------------|----------------|
G-9999999999999999|8888888888888888|
D-----------------|----------------|
A-----------------|----------------|
E-9-9-9-9-9-9-9-9-|7-7-7-7-7-7-7-7-|
Tap to rate this tab
# A B C D E F G H I J K L M N O P Q R S T U V W X Y Z