Song name
# A B C D E F G H I J K L M N O P Q R S T U V W X Y Z

Catherine Wheel - Black Metallic tab

BLACK METALLIC
as transcribed by Marcel Levi 

http://www.cwcovercomp.com/tabs/blackmetallic.txt

Provided by the Catherine Wheel Cover Compilation.
These are unofficial tabs, not authored or endorsed by The Catherine Wheel.
All authorship credit goes to the author(s) mentioned above.

\\\\\\\\\\\\\\\\\\\\\\\\\\\\\\\\\\\\\\\\\\\\\\\\\\\\\\\\\\\\\\\\\\\\\\\\\\\



INTRO:
   G    a    F
|--3----0----1------|
|--3----1----1------|
|.-0----2----2-----.| 2x guitar only
|.-0----2----3-----.| 4x w/ all
|--2----0----3------|
|--3---------1------|

VERSE:
G            a                    F
  I've never seen you when you're smiling
  It really gets under my skin
  You say it's easy when it's faster
  I still can't guess what you're after

CHORUS:
           G             F     C
  It's the colour of your skin
G                      F      C
  Your skin is black metallic
  It's the colour of your skin
  Your skin is black metallic
  Your skin is black metallic
G                      a      F      a       F
  Your skin is black metallic

VERSE:
G            a               F
  I think of you when you're sleeping
  Of all the secrets that you're keeping
  You can't stay all day under the covers
  'Cause under there you'll discover

CHORUS:
           G             F     C
  It's the colour of your skin
G                      F      C
  Your skin is black metallic
  It's the colour of your skin
  Your skin is black metallic
  Your skin is black metallic
G                        a
  You're turning black metallic

      F       a        F       a        F       a        F
ah-ah-ah         ah-ah-ah         ah-ah-ah         ah-ah-ah

a               F               a               F
/---/---/---/---/---/---/---/---/---/---/---/---/---/---/---/---

SOLO: (all the effects make it hard to get precise notes, but
       this is the general feel of it)
|----5---8--5-----5-8--8/10--8--5--8/10--8--7--8--7--8------5----|
|--8-----------8----------------------------------------------5--|
|-------------------------------------------------------5^-------|
|----------------------------------------------------------------|
|----------------------------------------------------------------|
|----------------------------------------------------------------|
                                         6x
|---------------------|-------------------|--5--8--5--3----------|
|------------------5--|----------8-6-5----|----------------------|
|--7^-----5--4--5-----|.------5--------7-.|----------------------|
|---------------------|.--5/7------------.|----------------------|
|---------------------|-------------------|----------------------|
|---------------------|-------------------|----------------------|

           G             F
  It's the colour of your skin
G                        F     C
  It's the colour of your skin




Tap to rate this tab
# A B C D E F G H I J K L M N O P Q R S T U V W X Y Z