Song name
# A B C D E F G H I J K L M N O P Q R S T U V W X Y Z

Catherine Wheel - I Want To Touch You tab

I WANT TO TOUCH YOU
as transcribed by Marcel Levi

http://www.cwcovercomp.com/tabs/iwanttotouchyou.txt

Provided by the Catherine Wheel Cover Compilation.
These are unofficial tabs, not authored or endorsed by The Catherine Wheel.
All authorship credit goes to the author(s) mentioned above.

\\\\\\\\\\\\\\\\\\\\\\\\\\\\\\\\\\\\\\\\\\\\\\\\\\\\\\\\\\\\\\\\\\\\\\\\\\\



CHORDS USED:
   E   G   A   D
|--0---3---5---5----|
|--0---3---5---7----|
|--1---4---6---7----|
|--2---5---7---7----|
|--2---5---7---5----|
|--0---3---5---5----|
                                  (bass:)
                                    (E)         (B)          (G)      (A)
INTRO                          (4x)  E                        G        A
|--------------------------------|--12-12-12-12-10-10-10-10-|-10-7-7-7-7-5-5-5-|
|---------------3---3---2-3-2-0--|--------------------------|------------------|
|.---4-2--2-4-4---4---4---------.|--------------------------|------------------|
|.-2----------------------------.|--------------------------|------------------|
|--------------------------------|--------------------------|------------------|
|--------------------------------|--------------------------|------------------|

 (E)     (B)       (G)     (A)       (E)     (B)       (G)     (A)
  E                 G       A    (2x) E                 G       A
|-5-4-4-4-4-4-4-4-|-4-3-3-3-3-5-5-5-|-5-4-4-4-4-4-4-4-|-7-8-7-8-7--|
|-----------------|-----------------|-----------------|------------|
|.----------------|----------------.|-----------------|------------|
|.----------------|----------------.|-----------------|------------|
|-----------------|-----------------|-----------------|------------|
|-----------------|-----------------|-----------------|------------|

VERSE
  (E)    (B)   (G)     (A)
   E            G       A
|--------------------------------|   I always thought the way you talked was neat
|---------------3---3---2-3-2-0--|   And I dreamed that when you speak, you speak to me
|.---4-2--2-4-4---4---4---------.|   But you're always out of reach
|.-2----------------------------.|   And I can't control my speech
|--------------------------------|   And I'm scared that when we meet, 
|--------------------------------|   I'll want to touch you

CHORUS
  (E)    (B)   (G)     (D)
   E            G       D
|-----------------------1-2-1-0--|   I want to touch you
|---------------3---3------------|   I want to touch you
|----4-2--2-4-4---4---4---------.|   I want to touch you
|--2----------------------------.|   I want to touch you
|--------------------------------|
|--------------------------------|

(Repeat VERSE)

(Repeat CHORUS)


BRIDGE
   a         C    F
|--0------|--0----1--|   But you're always out of reach.
|--1------|--1----1--|   And I can't control my speech.
|--2------|--0----2--|   And I'm scared that when we meet.
|--2------|--2----3--|   I'm fermenting can't you see.
|--0------|--3----3--|
|---------|-------1--|


(Solo)

(Repeat CHORUS)
Tap to rate this tab
 
# A B C D E F G H I J K L M N O P Q R S T U V W X Y Z