Song name
# A B C D E F G H I J K L M N O P Q R S T U V W X Y Z

Catherine - Reach For The Sky tab

This tab can sounds good eighor Drop B or Drop C i used C so it doesnt matter..

Guitar 1 (0:00 - 0:13)

D------------------------------------------------slide-up-->----------------|
A------------------------------15~--------------slide-up-->-----------------|
F-------------------------s14------------------slide-up-->------------------|
C--0~-----------------------------------------------------------------------|
G--0~-----------------------------------------------------------------------|
C--0~-----------------------------------------------------------------------|


GUITAR 2 (0:00 - 0:13)
D---------------------------------------------------------------------------|
A---------------------------------------------------------------------------|
F---------------------------------------------------------------------------|
C--000-000-000-000-000--0-000-000-0-----------------------------------------|
G--000-000-000-000-000--0-000-000-0--------------------x4-------------------|
C--000-000-000-000-000--0-000-000-0-----------------------------------------|
PM

GUITAR 1
D---------------------------------------------------------------------------|
A---------------------------------------------------------------------------|
F---------------------------------------------------------------------------|
C--000-0-000-00--000-0-000-0-0--000-0-000-00--000-0-000-0-------------------|
G--000-0-000-00--000-0-000-0-0--000-0-000-00--000-0-000-0------------x2-----|
C--000-0-000-00--000-0-000-0-0--000-0-000-00--000-0-000-0--7*---------------|
PM

And thats it, haha i know this is is pritty much all 0's but oh well..And im gunna post 
It Tomorrow Yet? the full song as soon as i can figure out acouple parts so thanks and 
you like it!
Tap to rate this tab
 
# A B C D E F G H I J K L M N O P Q R S T U V W X Y Z