Song name
# A B C D E F G H I J K L M N O P Q R S T U V W X Y Z

Catherine - Evil Man Dead Man tab

This is Evil Man, Dead Man by Catherine..its pretty simple, so shred.


Tunning - Drop C


LEFT SPEAKER (Rythem)

Intro (0:00-0:06)
D|---------------------------------------|
A|---------------------------------------|
F|---------------------------------------|
C|--444~--------444~------\\-------------|
G|--444~--------444~-------\\--Slide-Up--|
C|--444~--------444~--------\\-----------|


(0:10-0:27)
D|---------------------------------------------------------------|
A|---------------------------------------------------------------|
F|---467--------467------------------------------467--------467--|
C|-------467467-------4-4-4-4-4-4-4-6-6-6-6----------467467------|x4
G|---------------------------------------------------------------|
C|------------------44-4-4-0-0-0-0-2-2-2-2-----------------------|
                    .. . . . . . . . . . .

Bridge Thing (0:28-0:39) pick really fast
D|---------------------------------------------------------|
A|---------------------------------------------------------|
F|---------------------------------------------------------|
C|------4-6-7-4-9-7-6--------------------------------------|x4
G|--------------------8------------------------------------|
C|---------------------------------------------------------|

(0:40-0:41)
D|-----------9~-----------|
A|-----------13~----------|
F|------------------------|
C|--444444----------------|
G|--444444----------------|
C|--444444----------------|

Another Bridge Thing (0:41-1:01)
D|---------------------------------------------------|
A|---------------------------------------------------|
F|-------------------------------444-222-111---------|
C|---4~-444444-7-6-4h6-0~-000000--------------222----|
G|---4~-444444---------0~-000000---------------------|
C|---4~-444444--4-4----0~-000000---------------------|
        ......  . .       ......

Continued...
D|----------------------------------------------|
A|----------------------------------------------|
F|---------------------------7-6-4-67-----------|
C|--2-2~--7-6-4-6-7---222-2~-----------222-0~---|x2
G|--2-2~--------------222-2~-----------222-0~---|
C|--2-2~-2-2-2-2-2----222-2~-2-2-2-2---222-0~---|
    .    . . . . .    ...    . . . .   ...

Chorus (1:02-1:34)
D|----------------------------------------------------------------------------------------------|
A|----------------------------------------------------------------------------------------------|
F|-------44-----------------------44-----------------------44-----------------------------------|
C|--0-0~----77-44-66-77-6h7--0-2~----77-44-66-77-6h7--2-4~----77-44-66-77-6h7--777777-666666----|
G|--0-0~---------------------0-2~---------------------2-4~-----------------------777777-666666--|
C|--0-0~---------------------0-2~---------------------2-4~-----------------------777777-666666--|
    .                        .                        .


Chorus Again
D|----------------------------------------------------------------------------------------------|
A|----------------------------------------------------------------------------------------------|
F|-------44-----------------------44-----------------------44-----------------------------------|
C|--0-0~----77-44-66-77-6h7--0-2~----77-44-66-77-6h7--2-4~----77-44-66-77-6h7--777777-666666----|
G|--0-0~---------------------0-2~---------------------2-4~-----------------------777777-666666--|
C|--0-0~---------------------0-2~---------------------2-4~-----------------------777777-666666--|
    .                        .                        .

Chorus Again
D|----------------------------------------------------------------------------------------------|
A|----------------------------------------------------------------------------------------------|
F|-------44-----------------------44-----------------------44-----------------------------------|
C|--0-0~----77-44-66-77-6h7--0-2~----77-44-66-77-6h7--2-4~----77-44-66-77-6h7--777777-666666----|
G|--0-0~---------------------0-2~---------------------2-4~-----------------------777777-666666--|
C|--0-0~---------------------0-2~---------------------2-4~-----------------------777777-666666--|
    .                        .                        .

Then (1:35-1:39)
D|---------------------------------|
A|---------------------------------|
F|------------7-6-4----------------|
C|----4-6-7---------7-6-7-6h7------|
G|----------5----------------------|
C|---------------------------------|

Breakdown (1:40-2:14)
D|--------------------|
A|--------------------|
F|--------------------|
C|--44---4-44-4-------|x8
G|--44---4-44-4-------|
C|--44---4-44-4-------|
    ..   . .. .
(2:15-2:17)
D|-----------------|
A|-----------------|
F|-----------------|
C|---7-4--7-6-2~---|x1
G|-----------------|
C|-----------------|

(2:18-2:43)
D|-------------------------------------------------------------------------|
A|-------------------------------------------------------------------------|
F|-------------------------------------------------------------------------|
C|--000--000--000-000--000--000---44444444---77777-44444-7777-66666-22222--|x2
G|--000--000--000-000--000--000---44444444---------------------------------|
C|--000--000--000-000--000--000---44444444---------------------------------|
    ...  ...  ... ...  ...  ...              ..... ..... .... ..... .....

One The Third One Do This (2:44-2:54)
D|----------------------------------------------------------|
A|----------------------------------------------------------|
F|--------------------------------------------------7~------|
C|--000--000--000-000--000--000---7~----7------7~---7~------|x1
G|--000--000--000-000--000--000---4~--4---4~---4~---5~------|
C|--000--000--000-000--000--000---4~-----------4~-----------|
    ...  ...  ... ...  ...  ...

Then (2:55-2:59)
D|-------------------------------------------------|
A|-------------------------------------------------|
F|-------------------------------------------------|
C|--44444-44444-44444-44444-44444-44444-44444------|x1
G|--44444-44444-44444-44444-44444-44444-44444--7*--|
C|--44444-44444-44444-44444-44444-44444-44444------|
    ..... ..... ..... ..... ..... ..... .....

Breakdown (3:00-3:10)
D|-------------------------------------------------|
A|-------------------------------------------------|
F|-------------------------------------------------|
C|--44444-44444-44444-44444-44444-44444-44444------|x3
G|--44444-44444-44444-44444-44444-44444-44444------|
C|--44444-44444-44444-44444-44444-44444-44444------|
    ..... ..... ..... ..... ..... ..... .....

(3:11-3:21)
D|---------------------------|
A|---------------------------|
F|----------4----------------|
C|--4-6-7-----8-7h8p7--------|x4
G|--------5-----------7------|
C|---------------------------|

(3:22-3:32)
Tapping. This was easier to firgure out then i thought...
D|----------------------------------------------------------------------------------------------|
A|----------------------------------------------------------------------------------------------|
F|----------------------------------------------------------------------------------------------|x2
C|----------------------------------------------------------------------------------------------|
G|--12t9h1112t9h1112t9h1112t9h1112t9h1111t7h911t7h911t7h911t7h911t7h99t5h79t5h79t5h79t5h79t5h7--|
C|----------------------------------------------------------------------------------------------|

Chorus (3:33-3:54)
D|---------------------------------------------------------------------------------------------|
A|---------------------------------------------------------------------------------------------|
F|-------44-----------------------44-----------------------44----------------------------------|
C|--0-0~----77-44-66-77-6h7--0-2~----77-44-66-77-6h7--2-4~----77-44-66-77-6h7-777777-666666----|x2
G|--0-0~---------------------0-2~---------------------2-4~----------------------777777-666666--|
C|--0-0~---------------------0-2~---------------------2-4~----------------------777777-666666--|
    .                        .                        .

Last Breakdown (3:55-4:01)
D|-----------------------|
A|-----------------------|
F|-----------------------|
C|---44--4-44-4-44-44----|x1
G|---44--4-44-4-44-44----|
C|---44--4-44-4-44-44----|


RIGHT SPEAKER (Lead)


Intro (0:00-0:06)
D|---------------------------------------|
A|---------------------------------------|
F|---------------------------------------|
C|--444~--------444~------\\-------------|
G|--444~--------444~-------\\--Slide-Up--|
C|--444~--------444~--------\\-----------|

(0:07-0:11)
D|------------------------------------------------|
A|------------------------------------------------|
F|--------------------------------467--------467--|
C|-----4-4-4-4-4-4-4-6-6-6-6----------467467------|x4
G|------------------------------------------------|
C|---44-4-4-0-0-0-0-2-2-2-2-----------------------|
     .. . . . . . . . . . .

Then (0:12-0:27)
D|-----------------------------------------------------|
A|-----------------------------------------------------|
F|-------------------4-4-4-4---------------------------|
C|-----7-7-7-7-7-7-7-----------91112------------91112--|x4
G|-----------------------------------9111291112--------|
C|---44-4-4-0-0-0-0-2-2-2-2----------------------------|
     .. . . . . . . . . . .


Bridge Thing (0:28-0:39) pick really fast
D|---------------------------------------------------------|
A|---------------------------------------------------------|
F|---------------------------------------------------------|
C|------7-9-11---12-11-9-----------------------------------|x4
G|-------------9---------11--------------------------------|
C|---------------------------------------------------------|

(0:40-0:41)
D|-----------9~-----------|
A|-----------13~----------|
F|------------------------|
C|--444444----------------|
G|--444444----------------|
C|--444444----------------|


Another Bridge Thing (0:41-1:01)
D|---------------------------------------------------|
A|---------------------------------------------------|
F|-------------------------------444-222-111---------|
C|---4~-444444-7-6-4h6-0~-000000--------------222----|
G|---4~-444444---------0~-000000---------------------|
C|---4~-444444--4-4----0~-000000---------------------|
        ......  . .       ......

Continued...
D|----------------------------------------------|
A|----------------------------------------------|
F|---------------------------7-6-4-67-----------|
C|--2-2~--7-6-4-6-7---222-2~-----------222-0~---|x2
G|--2-2~--------------222-2~-----------222-0~---|
C|--2-2~-2-2-2-2-2----222-2~-2-2-2-2---222-0~---|
    .    . . . . .    ...    . . . .   ...


Chorus (1:02-1:34)
D|-----------------------------------------------------------------------------------|
A|-----------------------------------------------------------------------------------|
F|-------44-----------------------44-----------------------44------------------------|
C|--0-0~----77-44-66-77-6h7--0-2~----77-44-66-77-6h7--2-4~----77-44-66-77-6h7--------|
G|--0-0~---------------------0-2~---------------------2-4~---------------------------|
C|--0-0~---------------------0-2~---------------------2-4~---------------------------|
    .                        .                        .

Fill right after first chorus
D|-------------------------------|
A|-------------------------------|
F|----7h9-767-6h7p6--------------|
C|------------------7h9-767*-----|
G|-------------------------------|
C|-------------------------------|


Chorus Again
D|----------------------------------------------------------------------------------------------|
A|----------------------------------------------------------------------------------------------|
F|-------44-----------------------44-----------------------44-----------------------------------|
C|--0-0~----77-44-66-77-6h7--0-2~----77-44-66-77-6h7--2-4~----77-44-66-77-6h7--777777-666666----|
G|--0-0~---------------------0-2~---------------------2-4~-----------------------777777-666666--|
C|--0-0~---------------------0-2~---------------------2-4~-----------------------777777-666666--|
    .                        .                        .

Chorus Again
D|----------------------------------------------------------------------------------------------------|
A|----------------------------------------------------------------------------------------------------|
F|-------44-----------------------44-----------------------44-----------------------------------------|
C|--0-0~----77-44-7h99-77-6h7--0-2~----77-44-66-7h99-77-6h7--2-4~----77-44-99-77-6h7--777777-666666---|
G|--0-0~---------------------0-2~---------------------2-4~-----------------------------777777-666666--|
C|--0-0~---------------------0-2~---------------------2-4~-----------------------------777777-666666--|
    .                        .                        .

Then (1:35-1:39)
D|----------------------------------|
A|----------------------------------|
F|----------------------------------|
C|----7-9-11---12-11-9----97--------|x2
G|-----------9---------11---11-8h9--|
C|----------------------------------|

Breakdown (1:40-2:14)
D|--------------------|
A|--------------------|
F|--------------------|
C|--44---4-44-4-------|x3
G|--44---4-44-4-------|
C|--44---4-44-4-------|
    ..   . .. .

Thing in the breakdown
(1:54-2:07)
D|---------------------------|
A|---------------------------|
F|---------------------------|
C|-----7--7--7--7-7-7-7-7----|x4
G|---11-11-11-11-9-9-9-9-----|
C|---------------------------|

Back To Breakdown (2:08-2:14)
D|--------------------|
A|--------------------|
F|--------------------|
C|--44---4-44-4-------|x2
G|--44---4-44-4-------|
C|--44---4-44-4-------|
    ..   . .. .


(2:15-2:17)
D|-----------------|
A|-----------------|
F|-----------------|
C|--11-7-11-9-6~---|x1
G|-----------------|
C|-----------------|


(2:18-2:43)
D|------------------------------------|
A|-----7h9p710p7---7h9p710p7---14-----|
F|------------------------------------|
C|--000---------000---------000--000--|
G|--000---------000---------000--000--|
C|--000---------000---------000--000--|
    ...         ...         ...  ...

Pick really fast After the first one of those ^^^
D|--------------------|
A|--------------------|
F|----------6---6-4---|
C|--4-6-7-4---7-----7-|x1
G|--------------------|
C|--------------------|

Then After the second one
D|--------------------|
A|--------------------|
F|----------6---6-7-4-|
C|--4-6-7-4---7-------|x1
G|--------------------|
C|--------------------|


D|------------------------------------|
A|-----7h9p710p7---7h9p710p7---14-----|
F|------------------------------------|
C|--000---------000---------000--000--|x2
G|--000---------000---------000--000--|
C|--000---------000---------000--000--|
    ...         ...         ...  ...

(2:44-2:59)
D|-----------------------------------------------------|
A|-----------------------------------------------------|
F|--------------------------------18-------------------|
C|--4~----4~----------16--18--19------1918191816-------|
G|--4~----4~------1616--16--16--16--16-----------------|
C|--4~----4~-------------------------------------------|

Then
D|--------------------------------------------|
A|--------------------------------------------|
F|-----------------------18--1918-------------|
C|-----------16--18--19----------191816-------|
G|-------1717--17--17--17--17-----------------|
C|--------------------------------------------|

Now you just mute the G string
(3:00-3:10)
D|-------------------------------------------------------------------|
A|-------------------------------------------------------------------|
F|-----------------18-----------------------------18--1918-----------|
C|-----16--18--19------1918191816-----16--18--19----------191816-----|x2
G|-1616--16--16--16--16-----------1717--17--17--17--17---------------|
C|-------------------------------------------------------------------|
    . .   .   .   .   .            . .   .   .   .   .

Pick Really Fast
(3:11-3:32)
D|------------------------------------------|
A|------------------------------------------|
F|------------------------------------------|
C|---4---2---0---2---4---6---7--------------|x2
G|------------------------------------------|
C|------------------------------------------|
     .   .   .   .   .   .   .

Chorus (3:33-3:54)
D|-----------------------------------------------------------------------------------|
A|-----------------------------------------------------------------------------------|
F|-------44-----------------------44-----------------------44------------------------|
C|--0-0~----77-44-66-77-6h7--0-2~----77-44-66-77-6h7--2-4~----77-44-66-77-6h7--------|
G|--0-0~---------------------0-2~---------------------2-4~---------------------------|
C|--0-0~---------------------0-2~---------------------2-4~---------------------------|
    .                        .                        .

Fill right after first chorus
D|-------------------------------|
A|-------------------------------|
F|----7h9-767-6h7p6--------------|
C|------------------7h9-767*-----|
G|-------------------------------|
C|-------------------------------|

Last Chorus
D|---------------------------------------------------------------------------------------------|
A|---------------------------------------------------------------------------------------------|
F|-------44-----------------------44-----------------------44----------------------------------|
C|--0-0~----77-44-66-77-6h7--0-2~----77-44-66-77-6h7--2-4~----77-44-66-77-6h7-777777-666666----|x2
G|--0-0~---------------------0-2~---------------------2-4~----------------------777777-666666--|
C|--0-0~---------------------0-2~---------------------2-4~----------------------777777-666666--|
    .                        .                        .

Last Breakdown (3:55-4:01)
D|-----------------------|
A|-----------------------|
F|-----------------------|
C|---44--4-44-4-44-44----|x1
G|---44--4-44-4-44-44----|
C|---44--4-44-4-44-44----|


There you go...This took a long time, so be happy :) If you have any questions message me at myspace
www.myspace.com/codsterrrrr<----- thats my link
PEACE
Tap to rate this tab
# A B C D E F G H I J K L M N O P Q R S T U V W X Y Z