Song name
# A B C D E F G H I J K L M N O P Q R S T U V W X Y Z

Catherine - Is It Tomorrow Yet tab

Help us improve GuitareTab! Take a short survey!
This song is hella sick, and pretty easy so dont trip
And by the way everyone keeps saying Catherine is tuned in Drop B. Dudes. I know Both 
guitar players, they both said they NEVER tune in B. Theyre always in Drop C. So just 
all you guys know...im not trying to be mean, but seriously..come on now

Ok soo this is how i thhiinnk it goes..


Tunning - DROP C

(0:00-0:20)
D|------------------------------------------------------------------------|
A|------------------------------------------------------------------------|
F|------------------------------------------------------------------------|
C|--8-8-7-7-5-5-4-4-5-5-7--8-8-7-7-5-5-4-7-8-13-12-10-10h12p10h12p10h12---|x2
G|------------------------------------------------------------------------|
C|---5-5-5-5-5-5-5-5-5-5-55-5-5-5-5-5-5-5-5-5--5--5-----------------------|
     . . . . . . . . . . .. . . . . . . . . .  .  .

(0:21-0:44)
D|------------------------------------------------------|
A|------------------------------------------------------|
F|---12---10---12--------12--151412-15---14---151412----|
C|---x-x6-x-x6-x-x6--1212--12-------x-x6-x-x6-x-x-x-----|
G|---10---8----10-------------------13---12---131210----|
C|------------------------------------------------------|

Continued...
D|---------------------------------------------|
A|---------------------------------------------|
F|---12-12-12-12-12-12121212-12-12-12-12-12----|
C|---x--x--x--x--x--x-x-x-x--x--x--x--x--x-----|
G|---10-10-10-10-10-10101010-10-10-10-10-10----|
C|---------------------------------------------|

(0:45-0:51)
D|------------------------------------|
A|------------------------------------|
F|------------------------------------|
C|--5~--5-5-5-5-5---5555--------------|x2
G|--5~--5-5-5-5-5---5555--------------|
C|--5~--5-5-5-5-5---5555--------------|
        . . . . .   ....

D|----------------|
A|----------------|
F|---5*-----------|
C|---5*-----------|x1
G|----------------|
C|----------------|

(0:53-1:16)
D|--------------------------33333---3--------------|
A|-------------------------------------------------|
F|-------------------------------------------------|
C|--1-1-55555-3-3-55555-5-5-------5---55-3-1-------|x2
G|--1-1-------3-3-------5-5-------5---55-3-1-------|
C|--1-1-------3-3-------5-5-------5---55-3-1-------|
      .         .         .

(1:17-1:23)
D|---------------------------------------------------------------|
A|---------------------------------------------------------------|
F|---------------------------------------------------------------|
C|--55555-55555-5-5-55-5-5-555-55555--11111-11111-1-1-1-1--------|x2
G|--55555-55555-5-5-55-5-5-555-55555--11111-11111-1-1-1-1--------|
C|--55555-55555-5-5-55-5-5-555-55555--11111-11111-1-1-1-1--------|
    ..... ..... . . .. . . ... ...    ..... ..... . . .

(1:24-1:26)
D|-----------------------------------------|
A|-----------------------------------------|
F|-----------------------------------------|
C|-3-7-8-13-12-10-10h12p10h12p10h12--------|
G|-3---------------------------------------|
C|-3--5-5--5--5--5-------------------------|
   .  . .  .  .  .

(1:27-1:35)
D|------------------------------------------------------------------------|
A|------------------------------------------------------------------------|
F|------------------------------------------------------------------------|
C|--8-8-7-7-5-5-4-4-5-5-7--8-8-7-7-5-5-4-7-8-13-12-10-10h12p10h12p10h12---|
G|------------------------------------------------------------------------|
C|---5-5-5-5-5-5-5-5-5-5-55-5-5-5-5-5-5-5-5-5--5--5-----------------------|
     . . . . . . . . . . .. . . . . . . . . .  .  .

(1:36-1:41)
D|---------------------------------------------|
A|---------------------------------------------|
F|---7-7-7-7-7-7-3-3-3-3-3-3-8-8-7-7-5-5-------|
C|---55555555555-11111111111-33333333333-------|
G|---------------------------------------------|
C|---------------------------------------------|
      . . . . .   . . . . .   . . . . .

D|-----------------------------------|
A|-----------------------------------|
F|---------------3-3-3-3-3-3-5-------|
C|---55555555555-11111111111-3-------|
G|-----------------------------------|
C|-----------------------------------|
     ...........  . . . . .

PAUSE

(1:47-1:57)
D|---------------------------------------------|
A|---------------------------------------------|
F|---7-7-7-7-7-7-3-3-3-3-3-3-8-8-7-7-5-5-------|
C|---55555555555-11111111111-33333333333-------|x2
G|---------------------------------------------|
C|---------------------------------------------|
      . . . . .   . . . . .   . . . . .

(1:58-2:20)
D|---------------------------------------------------------------|
A|---------------------------------------------------------------|
F|--------7//-------7//------------------------------------------|
C|---555555//--555555//---10-8-7-8-7h8p7-------------------------|x4
G|------------------------10-8-7-8-7h8p7-------------------------|
C|------------------------10-8-7-8-7h8p7-------------------------|
     .....     .....


(2:21-2:42)
D|--------------------------33333---3--------------|
A|-------------------------------------------------|
F|-------------------------------------------------|
C|--1-1-55555-3-3-55555-5-5-------5---55-3-1-------|x4
G|--1-1-------3-3-------5-5-------5---55-3-1-------|
C|--1-1-------3-3-------5-5-------5---55-3-1-------|
      .         .         .

Breakdown (2:43-2:59)
F|-------------------------------------------------------------------|
A|-------------------------------------------------------------------|
D|-------------------------------------------------------------------|
C|--00000---0--00000---000-000-000---0---00000-000-00000----0~-------|x1
G|--00000---0--00000---000-000-000---0---00000-000-00000----0~-------|
C|--00000---0--00000---000-000-000---0---00000-000-00000----0~-------|
    .....   .  .....   ... ... ...   .   ..... ... .....


F|--------|
A|--------|
D|--------|
C|---5~---|x1
G|---5~---|
C|---5~---|


"TheCoolPart" (3:08-3:29)
F|--------------------------------------------------------------------|
A|--------------------------------------------------------------------|
D|-----15--17--19--17--15--17--1919-----19--17--15--17--19--17--1515--|
C|-1515--15--15--15--15--15--15-----1414--14--14--14--14--14--14------|
G|--------------------------------------------------------------------|
C|--------------------------------------------------------------------|
   . .    .  .    .   .  .    .     . .    .   .   .   .   .   .


F|--------------------------------------------------------------------|
A|--------------------------------------------------------------------|
D|-----17--19--20--19--17--19--2020-----15--17--19--17--15--17--1919--|
C|-1717--17--17--17--17--17--17-----1515--15--15--15--15--15--15------|x2
G|--------------------------------------------------------------------|
C|--------------------------------------------------------------------|
    . .  .    .   .   .   .   .      . .   .   .   .   .   .   .


(3:30-3:51)
D|---------------------------------------710-------|
A|--------------------------------------7---8------|
F|--------7-5-------7-5-------7-5-8-7--7-----------|
C|--1-111-----3-333-----5-555---------8------------|
G|--1-111-----3-333-----5-555----------------------|
C|--1-111-----3-333-----5-555----------------------|
      ...       ...       ...

D|-------------------------------------------------|
A|-------------------------------------------------|
F|--------7-5-------75787h8p7----------------------|
C|--1-111-----3-333-------7h88h1087h8p8------------|x2
G|--1-111-----3-333--------------------8h10--------|
C|--1-111-----3-333--------------------------------|
      ...       ...


(3:52-4:02)
D|---------------------------------------------------------------|
A|---------------------------------------------------------------|
F|---------------------------------------------------------------|
C|--55555-55555-5-5-55-5-5-555-55555--11111-11111-1-1-1-1--------|x2
G|--55555-55555-5-5-55-5-5-555-55555--11111-11111-1-1-1-1--------|
C|--55555-55555-5-5-55-5-5-555-55555--11111-11111-1-1-1-1--------|
    ..... ..... . . .. . . ... ...    ..... ..... . . .

Fill at the end of that ^^^^
D|-----------------------------|
A|-----------------------------|
F|--313------------------------|
C|-----3h5p3-------------------|x1
G|----------5~----3*^----------|
C|-----------------------------|


(4:03-4:16)
D|------------------------------------------------------------|
A|------------------------------------------------------------|
F|------------------------------------------------------------|
C|--5-5-5-55-555-555-555-555--5-5-5-55-555-555-555-555--------|
G|--5-5-5-55-555-555-555-555--5-5-5-55-555-555-555-555--------|
C|--5-5-5-55-555-555-555-555--5-5-5-55-555-555-555-555--------|
    . . . .. ... ... ... ...  . . . .. ... ... ... ...

D|------------------------------------------|
A|------------------------------------------|
F|------------------------------------------|
C|--1-1-1-11-111-111-111-111-33-3~-3-3~-----|x1
G|--1-1-1-11-111-111-111-111-33-3~-3-3~-----|
C|--1-1-1-11-111-111-111-111-33-3~-3-3~-----|
    . . . .. ... ... ... ... ..    .


Breakdown again just with more pauses (4:17-4:43)
D|-------------------------------------------------|
A|-------------------------------------------------|
F|-------------------------------------------------|
C|--5-5-5-55-----555-555--5-5-5-55-----555-555-----|
G|--5-5-5-55-----555-555--5-5-5-55-----555-555-----|
C|--5-5-5-55-----555-555--5-5-5-55-----555-555-----|
    . . . ..     ... ...  . . . ..     ... ...

D|------------------------------------------|
A|------------------------------------------|
F|------------------------------------------|
C|--1-1-1-11---------111-111-33-3~---3~-----|
G|--1-1-1-11---------111-111-33-3~---3~-----|
C|--1-1-1-11---------111-111-33-3~---3~-----|
    . . . ..         ... ... ..

End it
F|------------|
A|------------|
D|------------|
C|--5555--5---|
G|--5555--5---|
C|--5555--5---|
    ....

Yaaah thats pretty much it, so message me on myspace if you got questions, because i got answers
www.myspace.com/codsterrrrr<----- thats my link
PEACE
Related for Is It Tomorrow Yet tab