Song name
# A B C D E F G H I J K L M N O P Q R S T U V W X Y Z

Catherine - Latnemurtsni tab

Intro 1 Guitar 2
(repeated throughout other guitar 1 intros)

|----------------------------------------------------------------------|
|----------------------------------------------------------------------|
|----------------------------------------------------------------------|
|--------2--------------4-------------6-------9-999--8-888-------------|
|----2-----2-------4------4------6------6-----9-999--8-888-------------|
|-2-2--2-------4-4---4-------6-6---6----------9-999--8-888-------------|


Intro 2 Guitar 2

|----------------------------------------------------------------------|
|----------------------------------------------------------------------|
|----------------------------------------------------------------------|
|--2------4------6-------9-------8-------------------------------------|
|--2------4------6-------9-------8-------------------------------------|
|--2-x8---4--x8--6-x8----9-x4----8-x4----------------------------------|

it can also be played like this

|----------------------------------------------------------------------|
|----------------------------------------------------------------------|
|----------------------------------------------------------------------|
|--2------6------8-------9-------8-------------------------------------|
|--2------4------6-------9-------8-------------------------------------|
|--2-x8---4--x8--6-x8----9-x4----8-x4----------------------------------|


----------------------------------------------------------------------------

Intro pt. 1, Guitar 1.....kicks the ass out of my pants.

|-------19------------------18--------21--------19---------|
|----------17------x4----------17-17----17-17-----17-------|
|----------------------------------------------------------|
|----------------------------------------------------------|
|----------------------------------------------------------|
|----------------------------------------------------------|


|---------19----------------18---------21--------19--------|
|-----------16---x4------------16-16-----16-16------16-----|
|----------------------------------------------------------|
|----------------------------------------------------------|
|----------------------------------------------------------|
|----------------------------------------------------------|


Then It Goes.
Intro pt. 2, Guitar 1

|---7-----6-----6-----7------------------------------------|
|---5-x8--5-x8--4-x8--5--x8--------------------------------|
|----------------------------------------------------------|
|----------------------------------------------------------|
|----------------------------------------------------------|
|----------------------------------------------------------|

----------------------------------------------------------------------------
Solo
guitar 2 plays
the intro, only it is strummed
----------------------------------------------------------------------------

Put through wah and bend alot!
This is for guitar 1
He seems to have layered the Solo, the other layer can be played an octave lower or 
it sounds good either way.


|-----------------------------------------------------------------|
|-----------------------------------------------------------------|
|--15h16-16-16-16-------15-15-15----15-13-12-12--13-13-13-13-15---|
|-----------------------------------------------------------------|
|-----------------------------------------------------------------|
|-----------------------------------------------------------------|

----------------------------------------------------------------------------
Solo Breakdown: Guitar 1.
guitar 2 is 1 octave lower or higher. doesnt matter.
|----------------------------------------------------------|
|----------------------------------------------------------|
|---15h16-16h18-18h20-20h21-21p20-20p18-18p16--------------|
|----------------------------------------------------------|
|----------------------------------------------------------|
|----------------------------------------------------------|
x 3
then

|----------------------------------------------------------|
|----------------------------------------------------------|
|---15h16-18p16-15h16-18p16-13h15-16p15-13h15-16p15--------|
|----------------------------------------------------------|
|----------------------------------------------------------|
|----------------------------------------------------------|


----------------------------------------------------------------------------
guitar 2's part is played 1 octave lower.

----------------------------------------------------------------------------

Song Layout-
GUITAR 1:
Intro 1
Intro 2
Solo
Solo Breakdown
Intro 2
Solo
Intro 1 (layered on top of solo)


GUITAR 2:
Intro
Intro 2
Solo Breakdown
Intro (strummed)
Solo Rythym
Intro till song ends

yeah. it probly stinks like my dogs shit. so, yeah. Catherine kick the dick out of your 
pants, so eat on that.
<3 Much Love
Frank.
Tap to rate this tab
# A B C D E F G H I J K L M N O P Q R S T U V W X Y Z