Song name
# A B C D E F G H I J K L M N O P Q R S T U V W X Y Z

Catherine - Lite Brite tab

---------------------------Catherine - Lite Brite---------------------------
email me at tinkywinkybinkystinky@yahoo.com if you have any questions!
this is atleast 95% right. ENJOY.

Tuning: Dropped D
H-Hammer-on
P-Pull-off
*-Palm Mute
~-Vibrato/Let Ring Out


Guitar 1

e|--------------------------------------|
b|------10----8-------------8-----------|
g|------------------10------------10-10-|
d|-8-8----8-8---8-8----8-8----8-8-------|
a|--------------------------------------|
D|--------------------------------------|x2

                      |--first  ending--|  |---second ending---|
e|--------------------------------------|  |-------------------|
b|------10----8-------------8-----------|  |-------------------|
g|------------------10------------10-10-|  |-10~(10)--12~(12)--|
d|-7-7----7-7---7-7----7-7----7-7-------|  |-------------------|
a|--------------------------------------|  |-------------------|
D|--------------------------------------|x2|-------------------|

e|------------------------|--------------------------|
b|------------------------|--------------------------|
g|--------------------3~--|-7------9~----------------|
d|-0-0000--3~-2-2222--3~--|-x------x~--2h3p2---------|
a|-0-0000--3~-3-3333--1~--|-5------7~--------5-3-1~--|
D|-0-0000--3~-2-2222------|---0000-------------------|
                              ****
e|--------------------------------------|
b|------10----8-------------8-----------|
g|------------------10------------10-10-|
d|-8-8----8-8---8-8----8-8----8-8-------|
a|--------------------------------------|
D|--------------------------------------|x4

e|------------------|---------------------|
b|--3-3-3-5-5-3-3-3-|--3-3-3-6-6-5-5-5----|
g|-2-2-2-2-2-2-2-2--|-3-3-3-3-3-3-3-3-----|
d|------------------|---------------------|
a|------------------|---------------------|
D|------------------|---------------------|

DID THIS DURING CLASSS. COULDN'T FINISH.

youtube.com/dropdeadgorgeous
Tap to rate this tab
 
# A B C D E F G H I J K L M N O P Q R S T U V W X Y Z