Song name
# A B C D E F G H I J K L M N O P Q R S T U V W X Y Z

Catherine - Dear Elizabeth tab

Help us improve GuitareTab! Take a short survey!
Song-Dear Elizabeth
Band-Catherine
Album-The Naturals
Standard tuning
tabbed by Ethan; Korn 07

This is the instrumental off of catherines new cd the naturals. It sounds pretty good 
the most part, if you play around with the solo it might sound better though. This is in 
tuning.

just strum these for the given amount of time
       |
Intro  |
gtr.1  \/    gtr.2
|----------|-----5-3-5-3-1-5-0------------6-4-6-4-2-4-0--6/7--6/7-4-0--|
|----------|--------------------5/6--5/6-------------------------------|
|----------|-----------------------------------------------------------|
|5---------|-----------------------------------------------------------|
|3-------7-|-----------------------------------------------------------|
|--------5-|-----------------------------------------------------------|

when the rest of the band comes in
gtr.1
|------------------------|           |----------------------|
|------------------------|           |----------------------|
|------------------------| x4   then |----------------------|
|------------------------|           |----------------------|
|--x-x/10--10-----10--7-7|           |-88888888--1010101010-|
|--x-x/8---8------8---5-5|           |-66666666--8-8-8-8-8--|

|----------------|
|----------------|
|----------------| x8
|----------------|
|--12-12--10--8-8|
|--10-10--8---6-6|

solo (over gtr. 1's riffs)
gtr.2
|------------------------------------------------------------------|
|------------------------------------------------------------------|
|-------------------------------------8b-8b--10-7------------------|
|------------------------------------------------------------------|
|-5-4-5-4-7--7/9-5-5-6-7-9--5-6-7-9-5-------------8-9-10-11-11/16b-|
|------------------------------------------------------------------|

|--------------------------------------------------------|
|-----------15-17-19-15-17-19-15-17-19-15-17-19-15-17-19-|
|--------------------------------------------------------|
|-15-17-18b----------------------------------------------|
|--------------------------------------------------------|
|--------------------------------------------------------|

|-15h17p19h--15h17p19--15h17p19h--15h17p19h--15h17p19h-19b-17\\\\|
|----------------------------------------------------------------|
|----------------------------------------------------------------|
|----------------------------------------------------------------|
|----------------------------------------------------------------|
|----------------------------------------------------------------|

|----------------------------------------|
|----------------------------------------|
|14-15-14-12-10-12-10-9---7-9-10-11-10-6b|
|----------------------------------------|
|----------------------------------------|
|----------------------------------------|

then this
gtr.1
|-------------------------------------------------------------------------|
|-------------------------------------------------------------------------|
|-------------------------------------------------------------------------|
|-------------------------------------------------------------------------|
|-12-12-12-12-12-12-12-12-14-14-14-14-15-15-15-15-17-17-17-17-17-17-17-17-|
|-10-10-10-10-10-10-10-10-12-12-12-12-13-13-13-13-15-15-15-15-15-15-15-15-|

|-------------------------------------------------------------------------|
|-------------------------------------------------------------------------|
|-------------------------------------------------------------------------|
|-------------------------------------------------------------------------|
|-14-14-14-14-15-15-15-15-12-12-12-12-12-12-12-12-14-14-14-14-15-15-15-15-|
|-12-12-12-12-13-13-13-13-10-10-10-10-10-10-10-10-12-12-12-12-13-13-13-13-|

|-------------------------------------------------------------------------|
|-------------------------------------------------------------------------|
|-------------------------------------------------------------------------|
|-------------------------------------------------------------------------|
|17-17-17-17-17-17-17-17-14-14-14-14-15-15-15-15-12-12-12-12-12-12-12-12--|
|15-15-15-15-15-15-15-15-12-12-12-12-13-13-13-13-10-10-10-10-10-10-10-10--|

|------------------------------------------------------------------------|
|------------------------------------------------------------------------|
|------------------------------------------------------------------------|
|------------------------------------------------------------------------|
|14-14-14-14-15-15-15-15-12-12-12-12-12-12-12-12-14-14-14-14-15-15-15-15-|
|12-12-12-12-13-13-13-13-10-10-10-10-10-10-10-10-12-12-12-12-13-13-13-13-|


|------------------------------------------------------------------------|
|------------------------------------------------------------------------|
|------------------------------------------------------------------------|
|------------------------------------------------------------------------|
|12-12-12-12-12-12-12-12-14-14-14-14-15-15-15-15-12-12-12-12-12-12-12-12-|
|10-10-10-10-10-10-10-10-12-12-12-12-13-13-13-13-10-10-10-10-10-10-10-10-|


gtr.2
|-----------------------------------------------------------------------|
|-----------------------------------------------------------------------|
|7-7-7-7-7-7-7-7-9-9-9-9-10-10-10-10-12-12-12-12-12-12-12-12-12-9-9-9-9-|
|-----------------------------------------------------------------------|
|-----------------------------------------------------------------------|
|-----------------------------------------------------------------------|

|------------------------------------------------------------------------|
|------------------------------------------------------------------------|
|10-10-10-10-7-7-7-7-7-7-7-7-9-9-9-9-10-10-10-10-12-12-12-12-12-12-12-12-|
|------------------------------------------------------------------------|
|------------------------------------------------------------------------|
|------------------------------------------------------------------------|

|------------------------------------------------------------------------|
|------------------------------------------------------------------------|
|9-9-9-9-10-10-10-10-7-7-7-7-7-7-7-7-9-9-9-9-10-10-10-10-7-7-7-7-7-7-7-7-|
|------------------------------------------------------------------------|
|------------------------------------------------------------------------|
|------------------------------------------------------------------------|


|-----------------------------------------------------------------------|
|-----------------------------------------------------------------------|
|9-9-9-9-10-10-10-10-7-7-7-7-7-7-7-7-9-9-9-9-10-10-10-10-7-7-7-7-7-7-7-7|
|-----------------------------------------------------------------------|
|-----------------------------------------------------------------------|
|-----------------------------------------------------------------------|

Fill
gtr. 2
|-5-6-3-5-1-|
|-----------|
|-----------|
|-----------|
|-----------|
|-----------|

Outro
|--------------------|
|--------------------|
|9-9--8-8--6-6-------|
|--------------------|
|--------------------|
|--------------------|

then it fades into fallacy


Thats it. I saw catherine at the boardwalk with elysia and stick to your guns and they 
insane live!!!! have fun.
Related for Dear Elizabeth tab