Cathy Davey - Little Red tab

Cathy Davey-Little Red
Album: The Nameless

Tabbed by: L.A Rai

Great song :D

E-0-3-3--0--3-3--0--3-3--0-3-3---------------|
B-0-3-3--0--3-3--0--3-3--0-3-3---------------|
G-4-4-4--4--4-4--4--4-4--4-4-4---------------|
D-5-5-5--5--5-5--5--5-5--5-5-5---------------|
A-5-5-5--5--5-5--5--5-5--5-5-5---------------|
E-0-3-3--0--3-3--0--3-3--0-3-3---------------|

E---7-7----7-7----7-7----7-7-----------------|
B---8-8----8-8----8-8----8-8-----------------|
G---9-9----9-9----9-9----9-9-----------------|
D-0-9-9--0-9-9--0-9-9--0-9-9-----------------|
A-0-7-7--0-7-7--0-7-7--0-7-7-----------------|
E--------------------------------------------|

Hey I, I wouldn't let him in
No I, I wouldn't, I wouldn't let him in
His eyes are close together, and he wears a toothy grin
Don't let him in
No, I wouldn't if I were you let him in

Don't you, don't let him walk you home
No, no don't, don't let him walk you home
There's mischief in his makeup
You're better off to do that walk alone
No, I wouldn't if I were you, let him walk you home


E---8---7--8--7--2-----------------------------|
B---8---8--8--8--3-----------------------------|
G---9---9--9--9--2-----------------------------|
D---10--9--10-9--0-----------------------------|
A---10--7--10-7--0-----------------------------|
E---8------8-----0-----------------------------|

You're all the time believing the very best in all
But the devil was an angel, till he took a little fall
Oh you keep your guard up for lurkers in the dark
The day you let it down you're chased through the park
Tap to rate this tab
 
# A B C D E F G H I J K L M N O P Q R S T U V W X Y Z