Song name
# A B C D E F G H I J K L M N O P Q R S T U V W X Y Z

Cathy Davey - Army Of Tears tab

Song: Army Of Tears
Artist: Cathy Davey
From the album 'The Nameless'
Tabbed by: L.A Rai.

Guitar/Banjo - Capo on 1st fret.

Verses:

E-----------------------|
B----1-----1--------1---|
G----2-----2--------2---|
D--2-----2---2----2-----|
A-0----0--------0-------|
E-----------------------|

E-------------------------|
B-----1-----1----------1--|
G-----2-----2----------2--|
D--------------3----------|
A---3-----3---------3-----|
E-1-----1---------1-------|

E-----------------------|
B-----------------------|
G-----1------1----------|
D-----2------2----------|
A---2------2----2-------|
E-0------0--------------|

Chorus:

E-1--1--1--0--1--0-----0-----------|
B-1--3--1--0--3--0-----1-----------|
G-2--2--2--1--2--1-----2-----------|
D-3--0--3--2--0--2-----2-----------|
A-3-----3--2-----2-----0-----------|
E-1-----1--0-----0-----0-----------|

Am, F, and E played after second chorus.

Guitar 2:

E------------------------------------------------|
B------------------------------------------------|
G------------------------------------------------|
D------------------------------------------------|
A---1---1---1---1---------------1------1---------|
E-1---1----1--1---1-2--1-2-1-2-1-2-1-1-----------|

Chorus:

E-----6----------6-----------------|
B-11--7--11--10--7--10-------------|
G-11--8--11--10--8--10-------------|
D-11--8--11--10--8--10-------------|
A-9---6--9---8---6--8--------------|
E----------------------------------|

Feedback & comments welcome! :)
Check out my original music if you get a chance:

http://soundcloud.com/laura-rai
Tap to rate this tab
# A B C D E F G H I J K L M N O P Q R S T U V W X Y Z