Song name
# A B C D E F G H I J K L M N O P Q R S T U V W X Y Z

Cathy Davey - All Of You tab

Song: All of You
Artist: Cathy Davey
From the album 'Tales of Silversleeve'

Tabbed by: L.A Rai

Capo on 2nd fret:

E----------------------------------------------------------------------|
B---3--3--3--3---2--2---2--2---1---1---1---1---2---2---2---2-----------|
G---2--2--2--2---0--0---0--0---2---2---2---2---0---0---0---0-----------|
D----------------------------------------------------------------------|
A----0-----0------0------0-------0-------0-------0-------0-------------|
D-0-----0------2------2------3-------3-------2-------2-----------------|

All of you
I'm being sewn onto
Under your collar
Inside your sleeve
But in the meantime...

Some of you is going to have to do

E----------------------------------------------------------------------|
B---1--1---1---1---2---2---2---2---1---1---1---1---2---2---2---2-------|
G---2--2---2---2---0---0---0---0---2---2---2---2---0---0---0---0-------|
D----------------------------------------------------------------------|
A----0-------0-------0-------0-------0-------0-------0-------0---------|
D-3------3-------2-------2-------3-------3-------2-------2-------------|

I've not decided which part to choose
What bit I'll keep
Which bit I'll lose
I've not decided

E----------------------------------------------------------------------|
B-----------------------------3---3---3---2---2---2---2---2------------|
G-----------------------------2---2---2---3---3---3---3---3------------|
D--3--3--3--3/--7--7--7--7--------------0---------------0--------------|
A--3--3--3--3/--7--7--7--7------0---------------0----------------------|
D-3--3--3--3---7--7--7--7---0-------0-------0-------0------------------|

All of you

Love this song!! If you get a chance check out my original music:

http://soundcloud.com/laura-rai :)
Tap to rate this tab
# A B C D E F G H I J K L M N O P Q R S T U V W X Y Z