Guitaretab - guitar tabs
Song name
# A B C D E F G H I J K L M N O P Q R S T U V W X Y Z

Cattive Abitudini - Germano tab

Ecco il tab per "Germano"!
Manca l'assolo, io in quella parte ripeto ancora tre volte il ritornello.

Standard tuning EADGBe

Verso

e---------------------------------------------------------------------------------|
B---------------------------------------------------------------------------------|
G---7~---------------7-7-7---------------------------------7-7-7-7-7-7------------|
D---7~--5-5-5-5-5-5--7-7-7--7-7-7-7-7-7--5-5-5-5--7-7-7-7--7-7-7-7-7-7--5-5-5-5-5-|
A---5~--5-5-5-5-5-5--5-5-5--7-7-7-7-7-7--5-5-5-5--7-7-7-7--5-5-5-5-5-5--5-5-5-5-5-|
E-------3-3-3-3-3-3---------5-5-5-5-5-5--3-3-3-3--5-5-5-5---------------3-3-3-3-3-|

--------------------------------------|
--------------------------------------|
-----7-7-7---------------7-7-7-7-7-7--|
5-5--7-7-7--7-7-7-7-7-7--7-7-7-7-7-7--|
5-5--5-5-5--7-7-7-7-7-7--5-5-5-5-5-5--|
3-3---------5-5-5-5-5-5---------------|

[ Tab from: http://www.guitaretab.com/c/cattive-abitudini/103616.html ]
Pre-Rit.   |
	   |							    x2
e----------|--------------------------------------------------------||
B----------|--------------------------------------------------------||
G---7--6---|---4-4-4-4-4-4---------------7-7-7-7-7-7----------------||
D---7--6---|---4-4-4-4-4-4--5-5-5-5-5-5--7-7-7-7-7-7--7-7-7-7-7-7---||
A---5--4---|---2-2-2-2-2-2--5-5-5-5-5-5--5-5-5-5-5-5--7-7-7-7-7-7---||
E----------|----------------3-3-3-3-3-3---------------5-5-5-5-5-5---||


Ritornello (x4)

e--------------------------------------------------------|
B--------------------------------------------------------|
G---7-7-7-7-7-7------------------------------------------|
D---7-7-7-7-7-7--7-7-7-7-7-7--5-5-5-5-5-5--7-7-7-7-7-7---|
A---5-5-5-5-5-5--7-7-7-7-7-7--5-5-5-5-5-5--7-7-7-7-7-7---|
E----------------5-5-5-5-5-5--3-3-3-3-3-3--5-5-5-5-5-5---|


Finale

e-------------------------------------------------------|
B-------------------------------------------------------|
G---7-7-7-7-7-7-7-7-7-7-7-7-----------------------------|
D---7-7-7-7-7-7-7-7-7-7-7-7--5-5-5-5-5-5--7-7-7-7-7-7---|
A---5-5-5-5-5-5-5-5-5-5-5-5--5-5-5-5-5-5--7-7-7-7-7-7---|
E----------------------------3-3-3-3-3-3--5-5-5-5-5-5---|


Ordine:

Verso					"nella mia vita quante eresie..."
Pre-Rit. (x2 la seconda parte)          "se non bestemmio stavo..."
Ritornello (x4)			   	"wooo woooo  Germano..."
(Assolo)
Verso					"Nel mio lavoro sono..."
Pre-Rit. (x2 la seconda parte)		"Ma chi  quel mona..."
Ritornello (x4)				"Wooo woooo  Germano..."
Finale (ripetere fino alla fine)	"Sei come un uragano..."
Related for Germano tab