Song name
# A B C D E F G H I J K L M N O P Q R S T U V W X Y Z

Cattive Abitudini - La Solita Scusa tab

intro

e---------------------------------------------------|
G---------------------------------------------------|
D---------------------------------------------------|
A-5-55-7-77-9-99-10-9-7-5-(x3)--5-55--7-77-5--------|
E---------------------------------------------------|

strofa

---------------------------------------------------|
---------------------------------------------------|
---------------------------------------------------|
--7------------------------------------------------|
--5-9-7--------------------------------------------|
----7-5--------------------------------------------|

rit.
---------------------------------------------------|
---------------------------------------------------|
---------------------------------------------------|
-7-------------------------------------------------|
-5-7-5-9-7-----------------------------------------|
---5-3-7-5-----------------------------------------|

riff
---------------------------------------------------|
-3-33-5-55-7-77-8-7-5-3-(x3)-3-33-5-55-3-----------|
---------------------------------------------------|
---------------------------------------------------|
---------------------------------------------------|
---------------------------------------------------|
Tap to rate this tab
# A B C D E F G H I J K L M N O P Q R S T U V W X Y Z