Song name
# A B C D E F G H I J K L M N O P Q R S T U V W X Y Z

Catupecu Machu - A Veces Vuelvo tab

e.-----------------------------------------4-----|
B.--------------------------------22-------4-----|
G.------------------3-------3^^------1-111---1^^-|
D.----------5-6^^-------5-6----------------------|
A.--------4--------------------------------------|
E.--2-4-6----------------------------------------|

e.------------------------------------------------|
B.------------------------------------------------|
G.------------------------------------------------|
D.----------66-5x555--------------6666------------|
A.--------4---------------------------------------|
E.--2-4-6-------------1-11--4444------------------|

e.-------------------------------------------|
B.-------------------------------------------|
G.-------------------6/5------6/5------------|
D.-----------------------6/8-------6/8-------|
A.------4/6-----6/8--------------------------|
E.--4/2-----4/6------------------------------|

e.-------------------------------------------|
B.-------------------------------------------|
G.-------------------6/5------6/5-6/8--------|
D.-----------------------6/8-----------------|
A.------4/6-----6/8--------------------------|
E.--4/2-----4/6------------------------------|

e.------------------------------------------------|
B.------------------------------------------------|
G.------------------------------------------------|
D.----------66-5x555--------------6666------------|
A.--------4---------------------------------------|
E.--2-4-6-------------1-11--4444------------------|
Tap to rate this tab
# A B C D E F G H I J K L M N O P Q R S T U V W X Y Z