Song name
# A B C D E F G H I J K L M N O P Q R S T U V W X Y Z

Catupecu Machu - La Polca tab

rather a strange song... but excellent

Intro
e|------------------------|
B|--x--x-x--x-x--x--x-x-x-|
G|--x--x-x--x-x--x--x-x-x-|x4
D|--x--x-x--x-x--x--x-x-x-|
A|--x--x-x--x-x--x--x-x-x-|
E|------------------------|

Verse
e|-----------------------|
B|-2-2-x-2-x-x-----2--0--|
G|-2-2-x-2-x-x-----------|x 4
D|-2-2-x-2-x-x--2--------|
A|-----------------------|
E|-----------------------|


e|-----------------------|
B|-----------------------|
G|--1--1--x--1--x--1--x--|
D|--2--2--x--2--x--2--x--|x2
A|--2--2--x--2--x--2--x--|
E|-----------------------|

and then the previous part twice


Chorus

e|--2--2-x--2--x-2-------|
B|--3--3-x--3--x-3-------|
G|--2--2-x--2--x-2-------|x2
D|-----------------------|
A|-----------------------|
E|-----------------------|

e|-----------------------|
B|-2-2-x-2-x-x-----2--0--|
G|-2-2-x-2-x-x-----------|x2
D|-2-2-x-2-x-x--2--------|
A|-----------------------|
E|-----------------------|


then the second part is way much faster but it is the same as this first part


hope it's useful for somebody...

Tap to rate this tab
# A B C D E F G H I J K L M N O P Q R S T U V W X Y Z