Song name
# A B C D E F G H I J K L M N O P Q R S T U V W X Y Z

Catupecu Machu - Grandes Esperanzas tab

Catupecu Machu siempre utiliza una afinacion 1/2 tono mas bajo (un traste) de la 
normal, pero si utilizas afinacion normal solo tienes que restar 1 a todos los numeros del tab.

Intro/verso Guitarra 1
eb-------6-------6----------------------|
Bb--------------------------------------|
Gb----87------87------------------------|
Db-/8------/8-------8-------------------|
Ab--------------------------------------|
Eb--------------------------------------|

Intro/Verso/Coro/Coro final Guitarra 2
eb--------------------------------------|
Bb--------------------------------------|
Gb-----577----577-5---------------------|
Db--/8-----/8---------------------------|
Ab--------------------------------------|
Eb--------------------------------------|
En algunos coros en vez de tocar 5 ne Gb toca 6 en Bb

Coro Guitarra 1
eb--------------------------------------|
Bb--------------------------------------|
Gb-----------------8---7---5---5--------|
Db-3---5---8---7------------------------|
Ab-----------------6---5---3---3--------|
Eb-1---3---6---5------------------------|

Coro final Guitarra 1 (esta parte entra directamente despues de terminar en Coro 3)
eb------------------------------------------------|
Bb------------------------------------------------|
Gb---5---8---5---8---3---3---5---8---5---8---3\---|
Db------------------------------------------------|
Ab---3---6---3---6---1---1---3---6---3---6---1/---|
Eb------------------------------------------------|
 esta ultima nota repetir hasta el final
Tap to rate this tab
# A B C D E F G H I J K L M N O P Q R S T U V W X Y Z