Song name
# A B C D E F G H I J K L M N O P Q R S T U V W X Y Z

Catupecu Machu - A Veces Vuelvo tab

ACORDES:> F

INTRO

E-0---0---|
B-7---7---|
G-7---7---|x8
D-0---0---|
A-5---0---|
E-0---5---|



INTRO
Olvido todo este frio reunido de una sola vez.
INTRO
De vez en cuando, cada tanto
INTRO
los juegos prohibidos nos sacan ese frio.
INTRO
Escurro entre tus dedos
INTRO                         F
tus canciones, tus mitos hoy.
 D5
Y es que estamos desesperados
 B5
por encontrarnos y vernos hoy
      A5
y vernos hoy que...

EL ESTRIBILLO SE TOCA CON DISTORCION

 G5        B5
Mas deseo mas me alejo
  A5
soy un extraño aqui en mi cuerpo
 G5       B5
tanta calma desespero
 A5
salgo mucho a veces vuelvo

INTRO

Crujen los maderos de viejos andenes.
Las vias muertas nos quieren llevar
a nuevos cruces infinitos
Destinos imposibles,
noches de nunca acabar.

Y es que estamos desesperados
por encontrarnos y vernos hoy
y vernos hoy que...

Mas deseo mas me alejo
soy un extraño aqui en mi cuerpo
tanta calma desespero
salgo mucho a veces vuelvo

SOLO:

|---------------------------------------|
|---------------------------------6-----|
|-------------------------6---------6---|
|-----------4-6--88-44/6----44444-------|
|-------4-6-----------------------------|
|--4-6----------------------------------|

|---------------------------------------|
|---------------------------------------|
|---------------------------------------|
|------------44-33-1-11-----------------|
|-------4-6-------------666666----------|
|--4-6------------------444444----------|
                         (Sol#)

|---------------------------------------|
|---------------------------------------|
|------------------6-5-----6-5-6-5------|
|----------------------8-6--------------|
|------4-3-----6-4----------------------|
|--4-2-----6-4--------------------------|

|----------------------------------------|
|----------------------------------------|
|----------------------------------------|
|------------44-33-1-11-0----------------|
|-------4-6---------------666666---------|
|--4-6--------------------444444---------|
                         (Sol#)

Tap to rate this tab
# A B C D E F G H I J K L M N O P Q R S T U V W X Y Z