Song name
# A B C D E F G H I J K L M N O P Q R S T U V W X Y Z

Catupecu Machu - Los Tres Deseos tab

-------------------------------------------------------------------------------
			     SONG NAME:LOS TRES DESEOS - Band Name:Catupecu Machu
-------------------------------------------------------------------------------
Tabbed by:ApiRe	
Email:torrent.ktpq@gmail.com

Tuning:

Riff


                                              |¬►1           |¬►2
                                              |              |
e|--------------------------------------------|--0-2-4-------|---------------|
                                              |              |
B|-------5----------5--------------------5----|------5-------|-----5---------|
   •                                          |          •   |
G|-------4----------4--------------------4----|------4-------|-----4---------|
                                              |              |
D|-------2----------2--------------------2----|--------------|-----2---------|
                                              |              |
A|---------------------------2-2-2-2-2--------|--------------|---------------|
   •                                          |          •   |
E|----0------0-0-------0--2--0-0-0-0-0--------|--------------|---------------|






Chords
    E   A  E7  G7  
e|--0---0---0---2---|
B|--0---2---0---4---|
G|--1---2---1---4---|
D|--2---2---2---4---|
A|--2---0---2---2---|
E|--0---x---0---x---|




Intro: Riff

      E
Hace más de un mes que te entero
hace un día que espero
hace algo que llega el momento
que se cumplan los tres deseos.


Riff
 

Cuando menos pienso
se para el tiempo
la pasado pesado no pesa
desaparece. Se lo lleva el viento.

E

 E         
Busco mucho más
       A         B
de lo que a veces
B A         E
    encuentro
 E               A   B     B   A    E
pero sigo igual     busco, no desespero.



Busco mucho más
de lo que a veces encuentro
pero sigo igual
busco, no desespero.

                       _
E                       |X2
Oh , oh oh,....         |
               E  E  E  |
Una  oh oh oh oh oh oh  |
                       _|


Riff



Hace más de un mes que te entero
hace un día que espero
hace algo que llega el momento
que se cumplan los tres deseos.


Riff


Cuando menos pienso
se para el tiempo
la pasado pesado no pesa
desaparece. Se lo lleva el viento.

MI

Busco mucho más
de lo que a veces encuentro
pero sigo igual
busco, no desespero.

Busco mucho más
de lo que a veces encuentro
pero sigo igual
busco, no desespero.


                       _
E                       |X2
Oh , oh oh,....         |
               E  E  E  |
Una  oh oh oh oh oh oh  |
                       _|







| /  slide up
| \  slide down
| h  hammer-on
| p  pull-off
| ~  vibrato
| +  harmonic
| x  Mute note
Tap to rate this tab
# A B C D E F G H I J K L M N O P Q R S T U V W X Y Z