Song name
# A B C D E F G H I J K L M N O P Q R S T U V W X Y Z

Cau Moura - Festa Meme tab

Cm|Eb|Bb|A| [Intro]

Cm                                Eb                     
Cola nos Memes que é festa todo dia
Bb                                        A
Cola nos Memes que com certeza as mina pira [2 vezes]

Cm
A festa ta bombando,
Galera Reunida

Eb
Beber todos os drinks
Porque é da hora a vida
Bb
Me Gusta enchendo a cara
E a barriga de comida
A
Fuck Yea ali no Canto
Dando uns pega na Derpina
Cm
Olha que dó,
O Forever Alone isolado
Eb
Em toda festa é assim,
Que pobre coitado
Bb
E o Troll Face camarada,
Trouxe um Drink gelado
A
Mas era mijo com gelo
Em um copo Catarrado
Cm
Nada mal,
Yao Ming atacou de DJ
Eb
''Oque você tá fazendo?''
Ele responde ''Nem Sei!''
Bb
Até o lobo da coragem
Tá curtindo a festa
A
Mãe de Deus, na verdade
É Chuck Testa!
Cm
Esse é o evento mais legal desse Brasil
Eb
O nível dessa festa
É mais de oito mil
Bb
Memes do mundo inteiro
Vieram prestigiar
A
Menos a Luíza

Cm                                Eb                     
Cola nos Memes que é festa todo dia
Bb                                        A
Cola nos Memes que com certeza as mina pira [2 vezes]
Cm
Olha quem chegou
Um pouco atrasado
Eb
Jeremias muito louco junto com o Morre Diabo
Bb
O Forever Alone continua isolado no canto
A
Usou umas dorgas e enxergou o Nyan cat voando
Cm
''É nóis que voa, Bruxão!''
Disse o Derp
Eb
O desafio aceito
É dentro da roda de break
Bb
O fuck yea continua ganhado mulher
A
Ui, ele é conquistador
Ele pega quem quiser
Cm
Ali no cant, Like a Sir
Papo de respeito
Eb
Gordo granudo só na internet
Tudo perfeito
Bb
O Pedobear tava andando
Por aqui agora
A
Mas só encontrou gente adulta
E acabou indo embora
Cm
A festa Meme vai rolar até Segunda-feira
Eb
Ou até o Troll Face destruir ela inteira
Bb
Vigia tudo pra mim
Pra não rolar muita treta
A
Enquanto eu como um sanduíche... Iche...

Cm                                Eb                     
Cola nos Memes que é festa todo dia
Bb                                       A
Cola nos Memes que com certeza as mina pira 
Cm                                Eb                     

Cola nos Memes que é festa todo dia
Bb                                        A
Faz voz de robô que com certeza as mina pira
Cm
Kickin' In the front Seat,
Sittin' In the back seat
Eb
Gotta make my
Mind up
                    Bb
Whick seat Can i take?
                        A
It's Peanut butter jelly time
(We gon' find you, we gon' find you)
Cm
Look at my horse
My Horse is amazing
Eb                                         Bb
Give it a lick, It tastes just like raisins
                               A
Shut up, wonan get on my horse!
Hoje é dia de Rock, Bebê!

||Solo||


E|--------------------------------------------|
B|--------------------------------------------|
G|-10b12---10b12--10b12-—---10b12-----8p10r8~-|
D|--------------------------------------------|
A|--------------------------------------------|
E|--------------------------------------------|


E|---------------------------------8----------|
B|-----------------------------------8—11b13~-|
G|-7--8---10-8-----------------8-10-----------|
D|-------------10-8p10-----8-10---------------|
A|---------------------x/10-------------------|
E|--------------------------------------------|

E|----------------------8---------8---------8-|
B|-11b13—11b13~-------8---------8---------8---|
G|---------------10b12----10b12-----10b12-----|
D|--------------------------------------------|
A|--------------------------------------------|
E|--------------------------------------------|

E|----------8---------8---------8---------8---|
B|--------8---------8---------8---------8-----|
G|--10b12-----10b12-----10b12-----10b12-------|
D|--------------------------------------------|
A|--------------------------------------------|
E|--------------------------------------------|

E|---------8-------8-----8-----8-----8--------|
B|-------8---11b13—-11b13-11n13-11b13---------|
G|-10b12--------------------------------------|
D|--------------------------------------------|
A|--------------------------------------------|
E|--------------------------------------------|

E|-11r10r8--8---------------------------------|
B|--------11-11r10r8--8-----------------------|
G|------------------11—11r10r8-10b12-8~-------|
D|--------------------------------------------|
A|--------------------------------------------|
E|--------------------------------------------|

E|--------------------------------------------|
B|-------10-10-10-10-10-10-10—8~----10-8~-----|
G|-------10-10-10-10-10-10-10—8~----10-8~-----|
D|--8p10-10-10-10-10-10-10-10----10-----------|
A|--------------------------------------------|
E|--------------------------------------------|

E|---------8-10-11-10-8-----------------------|
B|-8-10-11-------------11-10-8-----------8-10-|
G|----------------------------10-8-7-8-10-----|
D|--------------------------------------------|
A|--------------------------------------------|
E|--------------------------------------------|

E|---8-10-11-10-8-----------------------------|
B|11-------------11-10-8------------8-9-11-9-8|
G|-----------------------10-8-7-8-10----------|
D|--------------------------------------------|
A|--------------------------------------------|
E|--------------------------------------------|

E|------------------|
B|------------------|
G|-10-8-7-----------|
D|-------10-8-7-10~-|
A|------------------|
E|------------------|



Cm                                Eb                     
Cola nos Memes que é festa todo dia
Bb                                        A
Cola nos Memes que com certeza as mina pira
Cm                                  Eb 
Cola nos Meme para Noooooooooooooossa Alegria!
Bb                                        A
Cola nos Memes que com certeza as mina pira


Frase (Dobrada em terça)
E|--------------------------------------------|
B|--------------------------------------------|
G|-8~-7~-5~--8~-7~-3~---10~-8~-7~--8-10-5~----| Até acabar a música
D|--------------------------------------------|
A|--------------------------------------------|
E|--------------------------------------------|
Tap to rate this tab
# A B C D E F G H I J K L M N O P Q R S T U V W X Y Z