Song name
# A B C D E F G H I J K L M N O P Q R S T U V W X Y Z

Cauldron - Chained Up In Chains tab

-------------------------------------------------------------------------------
			     Chained Up In Chains - Cauldron
-------------------------------------------------------------------------------
Tabbed by: Silver94
Tuning: Standard

This is my very first Tab, but I think it sounds right..
There are some effects like Chorus and Reverb used.

E||----------------------------|
B||----------------------------|
G||----------------------------|
D||-------6--5-----6--5--------|
A||----4--------4--------4--6--|
E||----------------------------|


  
|--------------------------|
|--------------------------|
|--------------------------|
|-----8--5-----8--5--------|
|-----------6--------6-----|
|--------------------------|


  
|---------------------------|
|--------1------------------|
|------------------6--------|
|-----3---------5-----5--5--|
|------------------------4--|
|--1--------1---------------|


   
|--------------------------|
|--------------------------|
|--------------------0--1--|
|--------3--5-----3--1-----|
|--------4-----------------|
|-----1--------1-----------|


     
|----------------------------|
|----------------------------|
|----------------------------|
|-------6--5-----6--5--------|
|----4--------4--------4--6--|
|----------------------------|


  
|--------------------------|
|--------------------------|
|--------------------------|
|-----8--5-----8--5--------|
|-----------6--------6-----|
|--------------------------|



http://www.myspace.com/cauldronmetal

..have fun with it :)




Duration Legend
---------------
W - whole
H - half
Q - quarter
E - 8th
S - 16th
T - 32nd
X - 64th
. - note dotted
|-n-|  - n-tuplets


Tablature Legend
----------------
L - tied note
x - dead note
g - grace note
(n) - ghost note
> - accentuded note
NH - natural harmonic
AH - artificial harmonic
TH - tapped harmonic
SH - semi harmonic
PH - pitch harmonic
h - hammer on
p - pull off
b - bend
br - bendRelease
pb - preBend
pbr - preBendRelease
brb - bendReleaseBend
\n/ - tremolo bar dip
\n - tremolo bar dive
-/n - tremolo bar Release up
/n\ - tremolo bar inverted dip
/n - tremolo bar return
-\n - tremolo bar Release down
S - shift slide
s - legato slide
/ -  slide into from below or out of upwards
\ -  slide into from above or out of downwards
~ - vibrato
W - wide vibrato
tr - trill
TP - tremolo picking
T - tapping
S - slap
P - pop
< - fade in
^ - brush up
v - brush down
Tap to rate this tab
 
# A B C D E F G H I J K L M N O P Q R S T U V W X Y Z