Song name
# A B C D E F G H I J K L M N O P Q R S T U V W X Y Z

Cause - Senseless tab

Help us improve GuitareTab! Take a short survey!
BAND:The Cause
SONG:"Senseless"
ALBUM:On My Own
PART:Guitar
WRITTEN BY:James Wadley, Dennis Hammond
TUNNING:Standard

RING:*
BEND:^
VIBRATO:~
       [BASS INTRO]
       
        [GUITAR 1]
[----------------------------] RIFF 1[2X]
[----------------------------]
[----------------------------]
[-9-9-11-12***9-9-11-12-11***]
[-9-9-11-12***9-9-11-12-11***]
[-7-7--9-10***7-7--9-10--9***]
[
[       [GUITAR 2]
[----------------------------]
[-^-^-^--^----^-^-^--^--^----]
[-8-8-10-11~~~8-8-10-11-10~~~]
[----------------------------]
[----------------------------]
[----------------------------]

        [GUITAR 1]
[--------------------------] RIFF 2[3X]
[--------------------------]
[--------------------------]
[----9-9-10-12-11-11-9-----]
[----9-9-10-12-11-11-9-----]
[----7-7--9-10--9-9--7-----]
[
[       [GUITAR 2]
[--------------------------]
[----^-^-^--^--^--^--^-----]
[----8-8-10-11-10-10-8-----]
[--------------------------]
[--------------------------]
[--------------------------]

         [GUITAR 1]
[--------------------------] RIFF 3 [1X]
[--------------------------]
[--------------------------]
[------9-11-12-11-9********]
[------9-11-12-11-9********]
[------7-9--10--9-7********]
[
[        [GUITAR 2]
[--------------------------]
[------^-^--^--^--^--------]
[------8-10-11-10-8~~~~~~~~]
[--------------------------]
[--------------------------]
[--------------------------]

         [GUITAR 1]
[--------------------------] VERSE 1[3X]
[--------------------------]
[--------------------------]
[--------9****11-12********]
[--------9****11-12********]
[--------7****-9-10********]
[
[        [GUITAR 2]
[--------------------------]
[--------^----^--^---------]
[--------8~~~~10-11~~~~~~~~]
[--------------------------]
[--------------------------]
[--------------------------]


         [GUITAR 1]
[--------------------------] RIFF 2[3X]
[--------------------------]
[--------------------------]
[----9-9-10-12-11-11-9-----]
[----9-9-10-12-11-11-9-----]
[----7-7--9-10--9-9--7-----]
[
[       [GUITAR 2]
[--------------------------]
[----^-^-^--^--^--^--^-----]
[----8-8-10-11-10-10-8-----]
[--------------------------]
[--------------------------]
[--------------------------]

         [GUITAR 1]
[--------------------------]  RIFF 3 [1X]
[--------------------------]
[--------------------------]
[------9-11-12-11-9--------]
[------9-11-12-11-9--------]
[------7-9--10--9-7--------]
[
[        [GUITAR 2]
[--------------------------]
[------^-^--^--^--^--------]
[------8-10-11-10-8--------]
[--------------------------]
[--------------------------]
[--------------------------]

        [GUITAR 1]
[-----------------------------] CHORUS 1 [4X]
[-----------------------------]
[-----------------------------]
[--77777777777--99999999999---]
[--77777777777--99999999999---]
[--55555555555--77777777777---]
[    
[       [GUITAR 2]
[-----------------------------]
[--^^^^^^^^^^^--^^^^^^^^^^^---]
[--66666666666--88888888888---]
[-----------------------------]
[-----------------------------]
[-----------------------------]

        [GUITAR 1]
[--------------------------] RIFF 2[3X]
[--------------------------]
[--------------------------]
[----9-9-10-12-11-11-9-----]
[----9-9-10-12-11-11-9-----]
[----7-7--9-10--9-9--7-----]
[
[       [GUITAR 2]
[--------------------------]
[----^-^-^--^--^--^--^-----]
[----8-8-10-11-10-10-8-----]
[--------------------------]
[--------------------------]
[--------------------------]

        [GUITAR 1]
[--------------------------] RIFF 3 [1X]
[--------------------------]
[--------------------------]
[------9-11-12-11-9--------]
[------9-11-12-11-9--------]
[------7-9--10--9-7--------]
[
[        [GUITAR 2]
[--------------------------]
[------^-^--^--^--^--------]
[------8-10-11-10-8--------]
[--------------------------]
[--------------------------]
[--------------------------]

         [GUITAR 1]
[--------------------------] VERSE 2[3X]
[--------------------------]
[--------------------------]
[--------9****11-12********]
[--------9****11-12********]
[--------7****-9-10********]
[
[        [GUITAR 2]
[--------------------------]
[--------^----^--^---------]
[--------8~~~~10-11~~~~~~~~]
[--------------------------]
[--------------------------]
[--------------------------]

[GUITAR 1]
[--------------------------] RIFF 2[3X]
[--------------------------]
[--------------------------]
[----9-9-10-12-11-11-9-----]
[----9-9-10-12-11-11-9-----]
[----7-7--9-10--9-9--7-----]
[
[       [GUITAR 2]
[--------------------------]
[----^-^-^--^--^--^--^-----]
[----8-8-10-11-10-10-8-----]
[--------------------------]
[--------------------------]
[--------------------------]

         [GUITAR 1]
[--------------------------]  RIFF 3 [1X]
[--------------------------]
[--------------------------]
[------9-11-12-11-9--------]
[------9-11-12-11-9--------]
[------7-9--10--9-7--------]
[
[        [GUITAR 2]
[--------------------------]
[------^-^--^--^--^--------]
[------8-10-11-10-8--------]
[--------------------------]
[--------------------------]
[--------------------------]

        [GUITAR 1]
[-----------------------------] CHORUS 2 [4X]
[-----------------------------]
[-----------------------------]
[--77777777777--99999999999---]
[--77777777777--99999999999---]
[--55555555555--77777777777---]
[    
[       [GUITAR 2]
[-----------------------------]
[--^^^^^^^^^^^--^^^^^^^^^^^---]
[--66666666666--88888888888---]
[-----------------------------]
[-----------------------------]
[-----------------------------]

        [GUITAR 1] 
[--^-----^-----^-----^--------] SOLO [2X]
[--7~~~~~9~~~~~6~~~~~8~~~~~---]
[-----------------------------]
[-----------------------------]
[-----------------------------]
[-----------------------------]
[
[       [GUITAR 2]
[-----------------------------]
[--^^^^^^^^^^^--^^^^^^^^^^^---]
[--66666666666--88888888888---]
[-----------------------------]
[-----------------------------]
[-----------------------------]

        [GUITAR 1]
[-----------------------------] CHORUS 3 [8X]
[-----------------------------]
[-----------------------------]
[--77777777777--99999999999---]
[--77777777777--99999999999---]
[--55555555555--77777777777---]
[    
[       [GUITAR 2]
[-----------------------------]
[--^^^^^^^^^^^--^^^^^^^^^^^---]
[--66666666666--88888888888---]
[-----------------------------]
[-----------------------------]
[-----------------------------]

        [GUITAR 1]
[----------------------------] RIFF 1[2X]
[----------------------------]
[----------------------------]
[-9-9-11-12***9-9-11-12-11***]
[-9-9-11-12***9-9-11-12-11***]
[-7-7--9-10***7-7--9-10--9***]
[
[       [GUITAR 2]
[----------------------------]
[-^-^-^--^----^-^-^--^--^----]
[-8-8-10-11~~~8-8-10-11-10~~~]
[----------------------------]
[----------------------------]
[----------------------------]
Related for Senseless tab