Song name
# A B C D E F G H I J K L M N O P Q R S T U V W X Y Z

Cauterize - Closer tab

-------------------------------------------------------------------------------
			     CLOSER - Cauterize
-------------------------------------------------------------------------------
Tabbed by: Logan Noonan
Email: noonanlt@hotmail.com

Tuning: Dropped D (DADGBE)


Guitar 1
Intro             
|--6--6--6--6--6--6--6--6--6--9--9--9--9--9--9--9--|
|--7--7--7--7--7--7--7--7--7--7--7--7--7--7--7--7--|
|--8--8--8--8--8--8--8--8--8--8--8--8--8--8--8--8--|
|--------------------------------------------------|
|--------------------------------------------------|
|--------------------------------------------------|


--9---6--6--6--6--6--6--6--6--9--9--9--9--9--9--9--|
--7---7--7--7--7--7--7--7--7--7--7--7--7--7--7--7--|
--8---8--8--8--8--8--8--8--8--8--8--8--8--8--8--8--|
---------------------------------------------------|
---------------------------------------------------|
---------------------------------------------------|


|---6--6--6--6--6--6--6--6--6--9--9--9--9--9--9--9--|
|---7--7--7--7--7--7--7--7--7--7--7--7--7--7--7--7--|
|*--8--8--8--8--8--8--8--8--8--8--8--8--8--8--8--8--|
|*--------------------------------------------------|
|---------------------------------------------------|
|---------------------------------------------------|


                                                        Let ring-------------|                     
--9---6--6--6--6--6--6--6--6--9--9--9--9--9--9--9---||--6--|-----|-----|-----|
--7---7--7--7--7--7--7--7--7--7--7--7--7--7--7--7---||--7--|-----|-----|-----|
--8---8--8--8--8--8--8--8--8--8--8--8--8--8--8--8---||--8--|-----|-----|-----|
----------------------------------------------------||-----|-----|-----|-----|
----------------------------------------------------||-----|-----|-----|-----|
----------------------------------------------------||-----|-----|-----|-----|

Guitar 2     
|----------------------------------------------|
|----------------------------------------------|
|--------------------------4----4--4--4--4--4--|
|---1--------1----1--1--1--4----4--4--4--4--4--|
|---1--------1----1--1--1--2----2--2--2--2--2--|
|---1--------1----1--1--1----------------------|


                                                 Let ring--------------|
----------------------------------------------||-----|-----|-----|-----|
----------------------------------------------||-----|-----|-----|-----|
-------------------------6----6--6--6--6--6--*||-----|-----|-----|-----|
--4--------4----4--4--4--6----6--6--6--6--6--*||--1--|-----|-----|-----|
--4--------4----4--4--4--4----4--4--4--4--4---||--1--|-----|-----|-----|
--4--------4----4--4--4-----------------------||--1--|-----|-----|-----|

Guitar 1
Verse
    PM PM PM PM PM PM PM PM PM PM PM PM PM PM PM    
|---6--------6--------6--------6--------6----------|
|------7--------7--------7--------7--------7-------|
|*--------8--------8--------8--------8--------8----|
|*-------------------------------------------------|
|--------------------------------------------------|
|--------------------------------------------------|


  PM PM PM PM PM PM PM PM PM PM PM PM PM PM PM PM    
--6--------6--------6-----9--------9--------9------||
-----7--------7--------7-----7--------7--------7---||
--------8--------8--------------8--------8--------*||
--------------------------------------------------*||
---------------------------------------------------||

Guitar 2
|---6--------6--------6--------6--------6----------|
|------7--------7--------7--------7--------7-------|
|---------8--------8--------8--------8--------8----|
|--------------------------------------------------|
|--------------------------------------------------|
|--------------------------------------------------|


--6--------6--------6-----9--------9--------9------||
-----7--------7--------7-----7--------7--------7---||
--------8--------8--------------8--------8--------*||
--------------------------------------------------*||
---------------------------------------------------||

Guitar 1
Pre-Chorus
-------------------------------------------------------------|
-------------------------------------------------------------|
---11--11-----11--11-----11--11-----11--11-----11-----11-----|
---11--11-----11--11-----11--11-----11--11-----11-----11-----|
----9---9------9---9------9---9------9---9------9------9-----|
-------------------------------------------------------------|

“If you’re a butterfly...”
                                                              
------------------------------------------------------------|
------------------------------------------------------------|
--11--11-----11--11-----11--11-----11--11-----11-----11-----|
--11--11-----11--11-----11--11-----11--11-----11-----11-----|
---9---9------9---9------9---9------9---9------9------9-----|
------------------------------------------------------------|

------------------------------------------------------------|
------------------------------------------------------------|
--11--11-----11--11-----11--11-----11--11-----11-----11-----|
--11--11-----11--11-----11--11-----11--11-----11-----11-----|
---9---9------9---9------9---9------9---9------9------9-----|
------------------------------------------------------------|



------------------------------------------------------------|
------------------------------------------------------------|
--11--11-----11--11-----11--11-----11--11-----11-----11-----|
--11--11-----11--11-----11--11-----11--11-----11-----11-----|
---9---9------9---9------9---9------9---9------9------9-----|
------------------------------------------------------------|

Guitar 2
-----------------------------------------|
-----------------------------------------|
-----------------------------------------|
---6--6-----------8--8-------------------|
---6--6-----------8--8-------------------|
---6--6-----------8--8-------------------|

“If you’re a butterfly...”

-----------------------------------------||x3
-----------------------------------------||
--6--6-----------------------------------||
--6--6-----------1--1--------------------||
--4--4-----------1--1--------------------||
-----------------1--1--------------------||


--------------------------------------|
--------------------------------------|
--------------------------------------|
--6--------6----6--6--6--6--6----6----|
--6--------6----6--6--6--6--6----6----|
--6--------6----6--6--6--6--6----6----|

“Butterfly...”

------------------------------------------|
------------------------------------------|
--6----6----6----6----6----6----6----6----|
--6----6----6----6----6----6----6----6----|
--4----4----4----4----4----4----4----4----|
------------------------------------------|


Guitar 1
Chorus
|---6--6--6--6--6--6--6--6--6--9--9--9--9--9--9--9--|
|---7--7--7--7--7--7--7--7--7--7--7--7--7--7--7--7--|
|---8--8--8--8--8--8--8--8--8--8--8--8--8--8--8--8--|
|---------------------------------------------------|
|---------------------------------------------------|
|---------------------------------------------------|

“Never meant to cut so deep...”
                                                                    
--9---6--6--6--6--6--6--6--6--9--9--9--9--9--9--9---|x4
--7---7--7--7--7--7--7--7--7--7--7--7--7--7--7--7---|
--8---8--8--8--8--8--8--8--8--8--8--8--8--8--8--8---|
----------------------------------------------------|
----------------------------------------------------|
----------------------------------------------------|

Guitar 2
|----------------------------------------------|
|----------------------------------------------|
|--------------------------4----4--4--4--4--4--|
|---1--------1----1--1--1--4----4--4--4--4--4--|
|---1--------1----1--1--1--2----2--2--2--2--2--|
|---1--------1----1--1--1----------------------|


                                                                         
----------------------------------------------|x4
----------------------------------------------|
-------------------------6----6--6--6--6--6---|
--4--------4----4--4--4--6----6--6--6--6--6---|
--4--------4----4--4--4--4----4--4--4--4--4---|
--4--------4----4--4--4-----------------------|

Guitar 1 (clean)
Bridge


---------------------------------------------|
---------------------------------------------|
-------------3-------3------------3-------3--|
--------4-------4------------4-------4-------|
---------------------------------------------|
---6--------------------6--------------------|



--------------------------------------------|
--------------------------------------------|
------------6-------6------------6-------6--|
-------4-------4------------4-------4-------|
--------------------------------------------|
--8--------------------8--------------------|



--------------------------------------------|
--------------------------------------------|
------------6-------6------------6-------6--|
-------4-------4------------4-------4-------|
--2--------------------2--------------------|
--------------------------------------------|



-----------------------------------------------------||x3
-----------------------------------------------------||
-----------------------------------------------------||
-------3----4p--3-----4p--3-----4p--3-----4p--3------||
--4----------------4---------4---------4---------4---||
-----------------------------------------------------||

(overdriven/distortion)
                    
|--------------------------------------------------|
|--------------------------------------------------|
|--------------------------------------------------|
|--6--6--6--6--6--6--6--6--6--6--6--6--6--6--6--6--|
|--6--6--6--6--6--6--6--6--6--6--6--6--6--6--6--6--|
|--6--6--6--6--6--6--6--6--6--6--6--6--6--6--6--6--|

“Cause I’ve been thinking about leaving...”
  
--------------------------------------------------|
--------------------------------------------------|
--------------------------------------------------|
--8--8--8--8--8--8--8--8--8--8--8--8--8--8--8--8--|
--8--8--8--8--8--8--8--8--8--8--8--8--8--8--8--8--|
--8--8--8--8--8--8--8--8--8--8--8--8--8--8--8--8--|



--------------------------------------------------|
--------------------------------------------------|
--------------------------------------------------|
--9--9--9--9--9--9--9--9--9--9--9--9--9--9--9--9--|
--9--9--9--9--9--9--9--9--9--9--9--9--9--9--9--9--|
--9--9--9--9--9--9--9--9--9--9--9--9--9--9--9--9--|


------------------------------------------------------------------|2x
------------------------------------------------------------------|
------------------------------------------------------------------|
--11--11--11--11--11--11--11--11--11--11--11--11--11--11--11--11--|
--11--11--11--11--11--11--11--11--11--11--11--11--11--11--11--11--|
--11--11--11--11--11--11--11--11--11--11--11--11--11--11--11--11--|

Order:
Intro
4 Bar Rest
Verse
Pre-Chorus
Chorus
4 Bar Rest
Verse
Pre-Chorus
Chorus
Bridge
Pre-Chorus (without Guitar 1 for first 4 bars)
Chorus
Tap to rate this tab
 
# A B C D E F G H I J K L M N O P Q R S T U V W X Y Z